Song name
# A B C D E F G H I J K L M N O P Q R S T U V W X Y Z

Beck - Black Tambourine tab

----------------------------------------------------------------------------
			     Black Tambourine - Beck
----------------------------------------------------------------------------

Tabbed by: David MacDonald
Email: bouncebackability_gravy@hotmail.co.uk

Tuning: standard

saw this on mtv2 and decided to tab it - it's my first tab, so feel free to e-mail me if 
think it's bad. Beck rules!

     d    d u d	u d  d    d u d u d u

e|---4/7--7-7-7-7-7--4/7--7-7-7-7-7-5---------------------------------------|
B|---4/7--7-7-7-7-7--4/7--7-7-7-7-7-5---------------------------------------|
G|---5/8--8-8-8-8-8--5/8--8-8-8-8-8-6---------------------------------------|
D|---6/9--9-9-9-9-9--6/9--9-9-9-9-9-7---------------------------------------|
A|---6/9--9-9-9-9-9--6/9--9-9-9-9-9-7---------------------------------------|
E|---4/7--7-7-7-7-7--4/7--7-7-7-7-7-5---------------------------------------|

 / = slide up
Tap to rate this tab
# A B C D E F G H I J K L M N O P Q R S T U V W X Y Z