Guitaretab - guitar tabs
Song name
# A B C D E F G H I J K L M N O P Q R S T U V W X Y Z

Beck - Lost Cause Acoustic tab

Beck - Lost Cause (Acoustic)

Old song, I know, the other tabs didn't seem right to me, I was listening to the song
and wanted to find a way for me to play it on one guitar. Anyhow, I think I combined
some of the notes from the second guitar onto the first one, either way, I think this
works much better. 

One Guitar, no capo, Standard tuning.

(~)= let ring

Intro:
    Fmaj               C           C/B       Fmaj               C         C/B
e|-----------0----------------------------|-----------0--------------------------|
B|--------1--------1----------1-----------|--------1---------1---------1---------|
G|--2-------------------------------------|--2-----------------------------------|
D|-----3--------3---------2------------0--|-----3---------3--------2----------0--|
A|--3------------------3------------3-----|--3------------------3----------3-----|
E|----------------------------------------|--------------------------------------|

    Fmaj               C           C/B       Am                E                 
e|-----------0----------------------------|-----------0-------------------~0~----|
B|--------1--------1----------1-----------|--------1-------------------0---------|
G|--2-------------------------------------|--2------------------1----------------|
D|-----3--------3---------2------------0--|-----2--------(2)-------2-------------|
A|--3------------------3------------3-----|--0------------------2----------------|
E|----------------------------------------|--------------------------------------|

    Fmaj               C           C/B       Fmaj               C         C/B
e|-----------0----------------------------|-----------0--------------------------|
B|--------1--------1----------1-----------|--------1---------1---------1---------|
G|--2-------------------------------------|--2-----------------------------------|
D|-----3--------3---------2------------0--|-----3---------3--------2----------0--|
A|--3------------------3------------3-----|--3------------------3----------3-----|
E|----------------------------------------|--------------------------------------|
          Your sorry eyes                           Cut through the bone

    Fmaj               C           C/B       Am                E                 
e|-----------0----------------------------|-----------0-------------------~0~----|
B|--------1--------1----------1-----------|--------1-------------------0---------|
G|--2-------------------------------------|--2------------------1----------------|
D|-----3--------3---------2------------0--|-----2--------(2)-------2-------------|
A|--3------------------3------------3-----|--0------------------2----------------|
E|----------------------------------------|--------------------------------------|
          Make it hard                              To leave you alone

    Fmaj               C           C/B       Fmaj               C         C/B
e|-----------0----------------------------|-----------0--------------------------|
B|--------1--------1----------1-----------|--------1---------1---------1---------|
G|--2-------------------------------------|--2-----------------------------------|
D|-----3--------3---------2------------0--|-----3---------3--------2----------0--|
A|--3------------------3------------3-----|--3------------------3----------3-----|
E|----------------------------------------|--------------------------------------|
          They leave you here                       Wearing your wounds 

    Fmaj               C           C/B       Am                E                 
e|-----------0----------------------------|-----------0-------------------~0~----|
B|--------1--------1----------1-----------|--------1-------------------0---------|
G|--2-------------------------------------|--2------------------1----------------|
D|-----3--------3---------2------------0--|-----2--------(2)-------2-------------|
A|--3------------------3------------3-----|--0------------------2----------------|
E|----------------------------------------|--------------------------------------|
          Waving your guns                          At somebody new  

    Fmaj               C           C/B       Fmaj               C         C/B
e|-----------0----------------------------|-----------0--------------------------|
B|--------1--------1----------1-----------|--------1---------1---------1---------|
G|--2-------------------------------------|--2-----------------------------------|
D|-----3--------3---------2------------0--|-----3---------3--------2----------0--|
A|--3------------------3------------3-----|--3------------------3----------3-----|
E|----------------------------------------|--------------------------------------|
            Baby youíre lost                           Baby youíre loooost   

    Fmaj         C             C/B    C                                         
e|----------~0~--------------------------------------------------------|
B|--------1------------1--------------------1-----------------1--------|
G|--2------------------------------------------------0-----------------|
D|-----3------------2--------------0-----2--------2--------2--------2--|
A|--3------------3--------------2-----3--------3--------3--------3-----|
E|---------------------------------------------------------------------|
                  Baby   your a lost  cause                               

    Fmaj               C           C/B       Fmaj               C         C/B
e|-----------0----------------------------|-----------0--------------------------|
B|--------1--------1----------1-----------|--------1---------1---------1---------|
G|--2-------------------------------------|--2-----------------------------------|
D|-----3--------3---------2------------0--|-----3---------3--------2----------0--|
A|--3------------------3------------3-----|--3------------------3----------3-----|
E|----------------------------------------|--------------------------------------|
           Thereís too many people                  You use to know     

    Fmaj               C           C/B       Am                  E                 
e|-----------0----------------------------|-----------0---------------------0-----|
B|--------1--------1----------1-----------|--------1--------------------0---------|
G|--2-------------------------------------|--2-------------------1----------------|
D|-----3--------3---------2------------0--|-----2--------(2)--------2-------------|
A|--3------------------3------------3-----|--0-------------------2----------------|
E|----------------------------------------|---------------------------------------|
          They see you coming                       They see you go    

    Fmaj               C           C/B       Fmaj               C         C/B
e|-----------0----------------------------|-----------0--------------------------|
B|--------1--------1----------1-----------|--------1---------1---------1---------|
G|--2-------------------------------------|--2-----------------------------------|
D|-----3--------3---------2------------0--|-----3---------3--------2----------0--|
A|--3------------------3------------3-----|--3------------------3----------3-----|
E|----------------------------------------|--------------------------------------|
           They know your secrets                   But you know theirís     
[ Tab from: http://www.guitaretab.com/b/beck/71126.html ]
    Fmaj               C           C/B       Am                  E                 
e|-----------0----------------------------|-----------0--------------------0-----|
B|--------1--------1----------1-----------|--------1-------------------0---------|
G|--2-------------------------------------|--2------------------1----------------|
D|-----3--------3---------2------------0--|-----2--------(2)-------2-------------|
A|--3------------------3------------3-----|--0------------------2----------------|
E|----------------------------------------|--------------------------------------|
          This town is crazy                        But nobody cares

    Fmaj               C           C/B       Fmaj               C         C/B
e|-----------0----------------------------|-----------0--------------------------|
B|--------1--------1----------1-----------|--------1---------1---------1---------|
G|--2-------------------------------------|--2-----------------------------------|
D|-----3--------3---------2------------0--|-----3---------3--------2----------0--|
A|--3------------------3------------3-----|--3------------------3----------3-----|
E|----------------------------------------|--------------------------------------|
            Baby youíre lost                           Baby youíre loooost   

    Fmaj         C             C/B    C                                         
e|----------~0~--------------------------------------------------------|
B|--------1------------1--------------------1-----------------1--------|
G|--2------------------------------------------------0-----------------|
D|-----3------------2--------------0-----2--------2--------2--------2--|
A|--3------------3--------------2-----3--------3--------3--------3-----|
E|---------------------------------------------------------------------|
                  Baby   your a lost  cause                               

    Fmaj               C           C/B       Fmaj               C         C/B
e|-----------0----------------------------|-----------0--------------------------|
B|--------1--------1----------1-----------|--------1---------1---------1---------|
G|--2-------------------------------------|--2-----------------------------------|
D|-----3--------3---------2------------0--|-----3---------3--------2----------0--|
A|--3------------------3------------3-----|--3------------------3----------3-----|
E|----------------------------------------|--------------------------------------|
             Iím tired of fighting                    Tired of fighting  

    Fmaj         C             C/B    C                                         
e|----------~0~--------------------------------------------------------|
B|--------1------------1--------------------1-----------------1--------|
G|--2------------------------------------------------0-----------------|
D|-----3------------2--------------0-----2--------2--------2--------2--|
A|--3------------3--------------2-----3--------3--------3--------3-----|
E|---------------------------------------------------------------------|
                 Fighting for a lost cause                               

    A                  F          C        C/B
e|-----------0------------------0----------------| (Note: I know there's more
B|--------2------------------1----------1--------|  picking after C/B but I
G|--2------------------2-------------------------|  can't figure it out.)
D|-----2--------2---------3----------2--------0--|  
A|--0------------------3----------3--------3-----|   
E|-----------------------------------------------|
             Thereís a place where you are going

    A                  F          C        C/B
e|-----------0------------------0----------------|
B|--------2------------------1----------1--------|
G|--2------------------2-------------------------|
D|-----2--------2---------3----------2--------0--|
A|--0------------------3----------3--------3-----|
E|-----------------------------------------------|
             You ainít never been before 

    A                  F          C        C/B
e|-----------0------------------0----------------|
B|--------2------------------1----------1--------|
G|--2------------------2-------------------------|
D|-----2--------2---------3----------2--------0--|
A|--0------------------3----------3--------3-----|
E|-----------------------------------------------|
          Thereís no laughing at your back now

    Fmaj           C          C/B    C                                         
e|-----------0-------------------------------------------------------|
B|--------1--------------1----------------1-----------------1--------|
G|--2----------------------------------------------0-----------------|
D|-----3-------3------2----------0-----2--------2--------2--------2--|
A|--3--------------3----------2-----3--------3--------3--------3-----|
E|-------------------------------------------------------------------|
          Thereís no one standing at your door

    Fmaj           C          C/B    C                                         
e|-----------0-------------------------------------------------------|
B|--------1--------------1----------------1-----------------1--------|
G|--2----------------------------------------------0-----------------|
D|-----3-------3------2----------0-----2--------2--------2--------2--|
A|--3--------------3----------2-----3--------3--------3--------3-----|
E|-------------------------------------------------------------------|
             Thatís what you thought love was for

    Fmaj               C           C/B       Fmaj               C         C/B
e|-----------0----------------------------|-----------0--------------------------|
B|--------1--------1----------1-----------|--------1---------1---------1---------|
G|--2-------------------------------------|--2-----------------------------------|
D|-----3--------3---------2------------0--|-----3---------3--------2----------0--|
A|--3------------------3------------3-----|--3------------------3----------3-----|
E|----------------------------------------|--------------------------------------|
            Baby youíre lost                           Baby youíre loooost   

    Fmaj         C             C/B    C                                         
e|----------~0~--------------------------------------------------------|
B|--------1------------1--------------------1-----------------1--------|
G|--2------------------------------------------------0-----------------|
D|-----3------------2--------------0-----2--------2--------2--------2--|
A|--3------------3--------------2-----3--------3--------3--------3-----|
E|---------------------------------------------------------------------|
                  Baby   your a lost  cause                               

    Fmaj               C           C/B       Fmaj               C         C/B
e|-----------0----------------------------|-----------0--------------------------|
B|--------1--------1----------1-----------|--------1---------1---------1---------|
G|--2-------------------------------------|--2-----------------------------------|
D|-----3--------3---------2------------0--|-----3---------3--------2----------0--|
A|--3------------------3------------3-----|--3------------------3----------3-----|
E|----------------------------------------|--------------------------------------|
             Iím tired of fighting                    Tired of fighting  

    Fmaj         C             C/B    C                                         
e|-----------0-------------------------------------------------------------0--|
B|--------1------------1--------------------1-----------------1-----------1---|
G|--2------------------------------------------------0-------------------0----|
D|-----3------------2--------------0-----2--------2--------2--------2---2-----|
A|--3------------3--------------2-----3--------3--------3--------3-----3------|
E|----------------------------------------------------------------------------|
                 Fighting for a lost cause                               
Related for Lost Cause Acoustic tab