Song name
# A B C D E F G H I J K L M N O P Q R S T U V W X Y Z

Beck - Everybodys Gotta Learn Smetime tab

Everybody’s Gotta Learn Sometime
Beck

Not sure if the beck version is in a different key to the original, but I could not find 
accurate tabs, so I wrote this one myself. Its as accurate as I could get it..plays 
the song.
Any comments? fatty_mcgee01@hotmail.com

Verse:

------------------------------------|
-3---3---3---3-------3---3---3---3--|
-3---3---3---3-------3---3---3---3--|
-5---5---5---5---3---2---2---1---1--|
------------------------------------|
------------------------------------|

Prechorus:
------------------------------------------|
-3-----------7------------4---4---6----6--|
-3-----------7------------3---3---5----5--|
-5-----------7------------5---5---7----7--|
-------------5------------3---6---8----6--|
------------------------------------------|
and I need        Like The Sunshine..
your loving..

Chorus:
-5----------------------6--------5-|
-6----------------------8--------5-|
-5----------------------7--------5-|
-7----------------------8--------5-|
-5----------------------6--------7-|
-----------------------------------|
Everybody’s Gotta..

2nd guitar:

-----------------------------------|
---------------------------8-11-13-|
---------------------------7-12-14-|
-----------------------------------|
-----------------------------------|
-----------------------------------|

Last Rpt (guitar 1)

-5-----------6---------------- ------------|
-6-----------8--------10------ --3-----3---|
-5-----------7--------10------ --3-----3---|
-7-----------8--------10------ --3-----3---|
-5-----------6---------8------ --x-----x---|
------------------------------ --1-----0---|  X4
                        ooh, ooh, ooh
Tap to rate this tab
 
# A B C D E F G H I J K L M N O P Q R S T U V W X Y Z