Song name
# A B C D E F G H I J K L M N O P Q R S T U V W X Y Z

Beck - Everybodys Gotta Learn Sometimes tab

Hi,

Love the song.
This is what I came up with:

tune : DGDGBE

-3---3---3---3-------3---3---3---3--| 2x     -3---3---3---3---2---2---|
-3---3---3---3-------3---3---1---1--|        -3---3---3---3---1---1---|
-3---3---3---3-------3---3---3---3--|        -3---3---3---3---2---2---|
-5-----------5-p-3---2-------1------        -5---5---5---5-----0---0--|
------------------------------------|        -------------------------|
------------------------------------|        -------------------------|
    „ Change your heart...

-2---2---------------------------------------------------------------------------|
-1---1-----------4-------------------------------------------------------1-------|
-2---2-------5-------5-------2-----------------------0-----------0---------0-----|
---0-------5---5---5---5-------3-------1---3p0-------------------------------1---|
---------5-----------------5-------5-----------2---3-------------------2---------|
-------------------------3-------3---1---0-------1-----------1-1-----------------|
                                        „everybody's gotta..


Chorus:
-------------------------------------------------------------------------------|
-------------------------------1-----------3----------3---------3---------3----|
-------------0-----------0-------0---------3----------3---------3---------3----|
---3p0---------------------1-------1-------3----------2---------3---------2----|
-------2---3-----------------2-------------------------------------------------|
-0-------1-----------1-1-------------------------------------------------------|
Everybody’s Gotta..                   oh oh oh


... well.. something along those lines anyway
Don't ask me how I got to this tuning. It was tuned for something completly different 
I was drunk, so I couldn't be bothered changing the tuning.
Tap to rate this tab
 
# A B C D E F G H I J K L M N O P Q R S T U V W X Y Z