Song name
# A B C D E F G H I J K L M N O P Q R S T U V W X Y Z

Beck - Everybodys Gotta Learn Sometime tab

For solo performance on guitar
Capo 3rd fret
All chords named with respect to capo

Verses

e|--0---0---0---0---0---0----0---0-------------------------------------------|
B|--0---0---0---0---0---0----0---0-------------------------------------------|
G|--0---0---0---0---0---0----0---0-------------------------------------------|
D|--2---2---2---2---2---2----2---2-------------------------------------------|
A|--2---2---2---2---4---4----3---3-------------------------------------------|
E|--0---0---0---0---0---0----0---0-------------------------------------------|
...Em..............Em6.......Cmaj7/E
          (Change your heart....)


Prechorus

e|--0---0---0---0----2-----0-----0------0-------------------------|
B|--0---0---0---0----4-----1-----1------3-------------------------|
G|--0---0---0---0----4-----0-----0------2-------------------------|
D|--2---2---2---2----4-----2-----2------4-------------------------|
A|--2---2---2---2----2-----0-----3------0-------------------------|
E|--0---0---0---0----x-----x-----x------x-------------------------|
....Em...............B....Am7....C.....Dsus2
      (And I need your loving....)


Chorus                               Post Chorus

e|--2------0------2---------------------------------------------------|
B|--3------0------2---------------------------------------------------|
G|--2------0------2------------------------------4--------------------|
D|--4------5------2---------------------5--------5--------------------|
A|--2------3------4---------------------5--------4--------------------|
E|--x------x----------------------------3--------X--------------------|
....Bm7...Cmaj7..F#m7..................G5......C#m7b5
       (Everybody's gotta learn...     ....ooOOoooo)


The rhythms are easy to follow with a quick listen. On the Post Chorus part, the G5 and 
chords can be played with ringing open stirngs to add volume, for fun ya know LOL! IMHO anyways!


Lyrics:

Change your heart
Look around you
Change your heart
It will astound you
I need your loving
Like the sunshine

Everybody's gotta learn sometime
OooOOoOOOoOoo
Tap to rate this tab
# A B C D E F G H I J K L M N O P Q R S T U V W X Y Z