Song name
# A B C D E F G H I J K L M N O P Q R S T U V W X Y Z

Beck - Horrible Fanfare Landslide Exoskeleton tab

Tabbed by: paintitblack39
mail: psyche3991@sbcglobal.net (its better to pm me)

Artist: Beck
Song title: The Horrible Fanfare/Landslide/Exoskeleton
Album: The Information

Standard Tuning

Main riff (it can be heard in the background)

e|---------------|
B|---------------|
G|---------------|
D|---------------|
A|-3-3-3-1-3-1-3-|
E|---------------|
Then:
e|---------------------|
B|---------------------|
G|--1-2----------------|
D|--3-2----------------|
A|--3-0-3-3-3-1-3-1-3--|
E|---------------------|
The riffs above are played throughout the song (corrected by heaven's gate)

I took a shot at the little synth riff or whatever. 
Its similar to the one in Cellphone's Dead (You can't hurt someone for trying)

e|--------------------------|
B|--------------------------|
G|--------------------------|
D|--------------------------|
A|----2-------------0-------|
E|--2---2--2-4-2--0---0-----|
This comes randomly throughout the song. 
I think it usually comes in the beginning and end, but I'm not sure

Solo/Interlude/whatever you wanna call it:
e|------8~~~~-------------8~~~~-----------|
B|-------------------------------11~~~~---|
G|-10b~------8~~~~~~--10b-----------------|Its played twice 
D|----------------------------------------|
A|----------------------------------------|
E|----------------------------------------|
That also comes randomly in the song

| /  slide up
| \  slide down
| h  hammer-on
| p  pull-off
| ~  vibrato
| +  harmonic
| x  Mute note
===============================================================================
Tap to rate this tab
# A B C D E F G H I J K L M N O P Q R S T U V W X Y Z