Song name
# A B C D E F G H I J K L M N O P Q R S T U V W X Y Z

Beck - Novacane tab

----------------------------------------------------------------------------
			     NOVACANE - Beck
----------------------------------------------------------------------------
Tabbed by: Tiwy
Email: Thierry_Skater@hotmail.com

Tuning: Standard

There is a Version Tabbed Of This Song For Bass, But Not On Guitar... So Here It Comes.

Intro (arranged For Guitar):

e|-------------------------------------------------------------------------|
B|-------------------------------------------------------------------------|
G|-------------------------------------------------------------------------|
D|-------------------------------------------7p6---------------------------|
A|-----7s9s7--5--5s7s5--4--2----7s9s7--5-----------------------------------|
E|--0-------------------------------------0--------------------------------|

Main riff
Verses:

e|-------------------------------------------------------------------------|
B|-------------------------------------------------------------------------|
G|--7--9--9--9--9--7--9--9--9-----7----------------------------------------|
D|--7--9--9--9--9--7--9--9--9-----7----------------------------------------|
A|--5--7--7--7--7--5--7--7--7-----5----------------------------------------|
E|-------------------------------------------------------------------------|

Guitar Break:

e|--------------------------------------|
B|--------------------------------------|
G|--------------------------------------|
D|--6--9s11--6--13s11--6--9s11--6--8p4--|
A|--------------------------------------|
E|--------------------------------------|

And That's It... After There's Some electronic effects...
Tap to rate this tab
 
# A B C D E F G H I J K L M N O P Q R S T U V W X Y Z