Song name
# A B C D E F G H I J K L M N O P Q R S T U V W X Y Z

Beck - Hotwax tab

Help us improve GuitareTab! Take a short survey!
(Guitar lowered 1/2 step)
open D w/slide
 intro(4X):
D-------------------------|
A-----0---0-----0-----0---|
F#----0---0-----0-2/3-0---|
D---------0-------------0-|
A--0--2/3-----------------|
D-------------0-----------|

Verse (2X)
D-----12~-----10----12~-|
A-----------------------|
F#-/12-----/10---/12----|
D-----------------------|
A-----------------------|
D-----------------------|
(as written for clavinette):
 (4x)
D-----------------------|
A-----------------------|
F#----------------------|
D-------5(6)----------3-|
A---5-5-------3-0-3-0---|
D-----------------------|
(distortion for this one)
D------12----10~-|
A----------------|
F#-/12----10-----|
D----------------|
A----------------|
D----------------|
 (4X)
D-------------------------|
A---/12--/12--------------|
F#--/12--/12---11---------|
D------------12--12-10-12-|
A-------------------------|
D-------------------------|

(chorus)(4X)
D---------------------------0-|
A----------10-----10--------0-|
F#---------10-----8---------0-|
D----------10-----9---------0-|
A-5-8-9-10--------10--------0-|
D-------------9-9------0-0----|
 alternate to clavinette part
D--------------------|
A--------------------|
F#-------------------|
D---7-6-5-3(4)-------|
A--------------5-3-5-|
D--------------------|

It takes a backwash man to sing a backwash song
Like a frying pan when the fire's gone
Driving my pig while the bear's taking pictures in the grass
In my radio smashed

And I like pianos in the evening sun
Dragging my heals 'til my day is done
Saturday night in the Captain's clothes
Tin horns blowing with my jury 'phros

C         G     D
Yo soy un disco cabrado*
C        G           D
Yo tengo chicle en cerabo

I can't believe my way back when
My Cadillac pants going much to fast
Karaoke weekend at the suicide shack
Community service and I'm still the mack

Shocked my finger spicing my hand
I been spreading disease all across the land
Beautiful air-conditioned sitting in the kitchen
Wishing I was living like a hit man

Face down in the guarantees
Jaundiced marshalls getting busy with ease
Because I get down I get down
I get down all the way

Yo soy un disco cabrado*
Yo tengo chicle en cerabo

Sawdust songs of the plaid bartenders
Western Unions of the country westerns
Silver foxes looking for romance
In the chain smoke Kansas flashdance ass pants

And you got the hotwax residues
You never lose in your razor blade shoes
Stealing pesos out of my brain
Hazard signs down the Alamo lanes

Radar systems using the souls
You never get caught with the wax so rotten
All my days I got the grizzly words
Hijacked flavors that I'm flipping like birds

Yo soy un disco cabrado*
Yo tengo chicle en cerabo

girl: "who are you?"
man: "I'm the enchanting wizard of rhythm."
girl: "why did you come here?"
man: "I came here to tell you about the rhythms of the universe...."

*chorus translation: "I'm a broken record/I have bubblegum in my brain"
Related for Hotwax tab