Song name
# A B C D E F G H I J K L M N O P Q R S T U V W X Y Z

Beck - Outcome tab

   Intro + verse:
    4x
-||--------------------------------||
-||--------------------------------||
-||--------------------------------||
-||----7--6-------------4---3------||
-||--------------------------------||
-||--7-7-7-7-7-7-7-7--5-5--4-4-4-4-||

   2x
||-----------------------------------------------------------------||
||-----------------------------------------------------------------||
||-------------------4-4----5-4------------------------------------||
||-9--9---9/10\9----------------------9--9-9-8-8----9---9-9-9/11---||
||-7-7-7-7-7-7-7-7-5-5-5-5-5-5-5-5-----------------9-9-9-9-9-9-9-9-||
||---------------------------------7-7-7-7-7-7-7-7-----------------||

Seventeen years in the city
static clinging to the ceiling

never did I think it would come to this
how come it's different than I expected
never did I think it would come to this
how come it's different than I expected

Riot cops cheerleaders
eyebrows painted on their heads
mouthful of rotting cavities
drinking coca cola in the street

(chorus)

Shot in the leg
shot in the leg
my name is a bone
nobody home
my hand is a wire
the sky is on fire
the drums aren't beating
pistols in jeans
laugh at the dead
laugh at the dead
love if you're dead
dead as a fly
Tap to rate this tab
# A B C D E F G H I J K L M N O P Q R S T U V W X Y Z