Song name
# A B C D E F G H I J K L M N O P Q R S T U V W X Y Z

Beck - Slip Out tab

This Is From The Anime Series BECK - Mongolian Chop Squad, ENJOY it As Much As I did!

INTRO

  CHORD PROGRESSION 
       C     G     F     Am    G     C
E|-----0-----3-----1-----5-----3-----0-------------------------------|
B|-----1-----3-----1-----5-----3-----1-------------------------------|
G|-----0-----0-----2-----5-----3-----0-------------------------------|
D|-----2-----0-----3-----7-----5-----2-------------------------------|
A|-----3-----2-----3-----7-----5-----3-------------------------------|
E|-----------3-----1-----5-----3-------------------------------------|2X
 |
 |POWER CHORD VERSION :(This is the only time with progression pattern)
 |     C5    G5    F5    A5    G5    C5
E|-------------------------------------------------------------------|
B|-------------------------------------------------------------------|
G|-----5-----------------------------5-------------------------------|
D|-----5-----5-----3-----7-----5-----5-------------------------------|
A|-----3-----5-----3-----7-----5-----3-------------------------------|
E|-----------3-----1-----5-----3-------------------------------------|2X

Verse 1 
|
|CHORD PROGRESSION 2X [ALONE]
|

Verse 2
|
|CHORD PROGRESSION and POWERCHORD VERSION 2X
|(Power Chords Are Played in 4/4 Time)


PRE-CHORUS
                  Sorrow Is What I Hate.......
 CHORD PROGRESSION       F     G     C     Am    F     G     C
E|---------------|-------1-----3-----0-----0-----1-----3-----0-------|
B|--2---2---2----|o------1-----3-----1-----1-----1-----3-----1------o|
G|----0---0---0--|-------2-----0-----0-----2-----2-----0-----0-------|
D|---------------|-------3-----0-----2-----2-----3-----0-----2-------|
A|---------------|o------3-----2-----3-----0-----3-----2-----3------o|
E|---------------|-------1-----3-----------------1-----3-------------|
 |
 |POWER CHORD VERSION
E|---------------|---------------------------------------------------|
B|--2---2---2----|o-------------------------------------------------o|
G|----0---0---0--|-------------------5-----2-----------------5-------|
D|---------------|-------3-----5-----5-----2-----3-----5-----5-------|
A|---------------|o------3-----5-----3-----0-----3-----5-----3------o|
E|---------------|-------1-----3-----------------1-----3-------------|

CHORUS

I'm Scared, I'm Scared......

  CHORD VERSION    C 
E|-----------------0-------|
B|-----------------1-------|
G|-----------------0-------|
D|-----6-----8-----2-------|
A|-----6-----6-----3-------|
E|-----4-----6-------------|4X
 |
 |POWERCHORD VERSION
E|-------------------------|
B|-------------------------|
G|-------------------------|
D|-----6-----8-----10------|
A|-----6-----6-----10------|
E|-----4-----6-----8-------|4X

 SOLO:
   
 Drag Pick
E|--------------------------------------------------------------(11)---------------------|
B|----10---------------------------------------------------------------------------------|
G|--\\10b11-pb11-10---8----8-8-/8----8-8-----8----8----8--10b11-----10b11r10p8-10-8~----|
D|----------------------10--------10------10---10---10-----------------------------------|
A|---------------------------------------------------------------------------------------|
E|---------------------------------------------------------------------------------------|

E|------------------------------------------------------------------8----------8---------|
B|-----------------------------8-10b11p8-10--8-10--8-10--8-10--8-10---10-8-10----10-8-10-|
G|------8-8-----8----8----8-10-----------------------------------------------------------|
D|--/10------10---10---10----------------------------------------------------------------|
A|---------------------------------------------------------------------------------------|
E|---------------------------------------------------------------------------------------|
    
E|-----8------------------10-------------------------------------------------------------|
B|--10---10-8-10--8-10--8-10b--10-8-10--8-10---------------------------------------------|
G|-------------------------------------------11-10-8--10b~-10b-8-----8----8b-8b----------|
D|----------------------------------------------------------------10---10----------------|
A|---------------------------------------------------------------------------------------|
E|---------------------------------------------------------------------------------------|
                                                  Drag Pick   
E|----------------------------------b22-b22-b22r~~\\\----------|
B|------------------7/////20-20-20----------------\\\----------|
G|-----8----8----8--------------------------------\\\----------|
D|-------10---10-----------------------------------------------|
A|-------------------------------------------------------------|
E|-------------------------------------------------------------|
 |This Is The Best I Can Do
 |
 |SOLO: RHYTHM GUITAR (Back-Up)
 |
 |Yeah This Is played In The Background Of The Solo
E|-------------------|
B|-------------------|
G|-------------------|
D|----3----5----7----|
A|----3----5----7----|
E|----1----3----5----|3X

E|-------------------|
B|-------------------|
G|--------------5----|
D|----3----5----5----|
A|----3----5----3----|
E|----1----3---------|End Off With This

~~~~~~~~~~~~~~~~~~~~~~~~~~~~~~~~~~~~~~~~~~~~~~~~~~~~~~~~~~~~~~~~~~~~~~~~~~~~~~~~~~~~


Bridge

Two Guitars: RHYTHM and LEAD(Solo Gaps)
                                                     [n]
E|---------------------------------------------------------------------|
B|--------------(/13-15-13-12-13~~)-------------(----15----)-----------|
G|----------------------------------------------(12------14)-----------|
D|---7---5---3----------------------7---5---3--------------------------|
A|---7---5---3----------------------7---5---3--------------------------|
E|---5---3---1----------------------5---3---1--------------------------|
                                                
                      [n]                        F       G
E|--------------(-----17------------)------------1~------3~------------|
B|--------------(/15-------17-15b\\-)------------1~------3~------------|
G|--------------(----------17-------)------------1~------0~------------|
D|---7---5---3---------------------------7---5---3~------0~------------|
A|---7---5---3---------------------------7---5---3~------2~------------|
E|---5---3---1---------------------------5---3---1~------3~------------|
                                             


PRE-CHORUS
                  Sorrow Is What I Hate.......
  RHYTHM GUITAR          F     G     C     Am    F     G     C
E|---------------|-------1-----3-----0-----0-----1-----3-----0-------|
B|---------------|o------1-----3-----1-----1-----1-----3-----1------o|
G|-----\\\-------|-------2-----0-----0-----2-----2-----0-----0-------|
D|-----\\\-------|-------3-----0-----2-----2-----3-----0-----2-------|
A|-----\\\-------|o------3-----2-----3-----0-----3-----2-----3------o|
E|-----Drag Pick-|-------1-----3-----------------1-----3-------------|
 |
 |LEAD GUITAR
E|---------------|---------------------------------------------------|
B|---------------|o-------------------------------------------------o|
G|---------------|-------------------5-----2-----------------5-------|
D|---------------|-------3-----5-----5-----2-----3-----5-----5-------|
A|---------------|o------3-----5-----3-----0-----3-----5-----3------o|
E|---------------|-------1-----3-----------------1-----3-------------|

~~~~~~~~~~~~~~~~~~~~~~~~~~~~~~~~~~~~~~~~~~~~~~~~~~~~~~~~~~~~~~~~~~~~~~~~~~~~~~~
CHORUS

The Chorus Ended Up A Little Different This Time(There Were Solo Gaps):
  
  I'm Scared , I'm Scared....
E|-------------------------------------------------------------------------------------------|
B|-------------------------------------------------------------------------------------------|
G|---------------(----11-8----b10r-8b---8---)--------------(----8-8----8----8-8----8----8---)|
D|---6---8---10--(/10------10--------10---10)-6---8---10---(/10-----10---10-----10---10---10)|
A|---6---8---10-------------------------------6---8---10-------------------------------------|
E|---4---6---8--------------------------------4---6---8--------------------------------------|


E|--------------------------------------------------0~~------------------|
B|-----------------(---------15b~~~-pb15r)----------1~~------------------|
G|-----------------(------12-------------)----------0~~------------------|
D|---6---8---10----(12-14----------------)--6---8---2~~------------------|
A|---6---8---10-----------------------------6---8---3~~------------------|
E|---4---6---8------------------------------4---6------------------------|

~~~~~~~~~~~~~~~~~~~~~~~~~~~~~~~~~~~~~~~~~~~~~~~~~~~~~~~~~~~~~~~~~~~~~~~~~~~~~~~~

And End It Off With This

       C     G     F     A     G     
E|-----0-----3-----1-----5-----3--------------|
B|-----1-----3-----1-----5-----3--------------|
G|-----0-----0-----2-----5-----3--------------|
D|-----2-----0-----3-----7-----5--------------|
A|-----3-----2-----3-----7-----5--------------|
E|-----------3-----1-----5-----3--------------|

       C     G     F     A     G
E|-----0-----3-----1-----5---------------3----|
B|-----1-----3-----1-----5------------3-------|
G|-----0-----0-----2-----5---------0----------|
D|-----2-----0-----3-----7--------------------|
A|-----3-----2-----3-----7--------------------|
E|-----------3-----1-----5-----3--------------|

-There It Is, I've Tried My Best-


Tablature Legend
----------------
 h   - hammer-on
 p   - pull-off
 b   - bend
 pb  - pre-bend
 r   - bend release (if no number after the r, then release immediately)
 /\  - slide into or out of (from/to "nowhere")
 s   - legato slide
 S   - shift slide
  - natural harmonic
[n]  - artificial harmonic
n(n) - tapped harmonic
 ~   - vibrato
 tr  - trill
 T   - tap
 TP  - trem. picking
 PM  - palm muting
\n/  - tremolo bar dip; n = amount to dip
 \n  - tremolo bar down
 n/  - tremolo bar up
/n\  - tremolo bar inverted dip
 =   - hold bend; also acts as connecting device for hammers/pulls
 <>  - volume swell (louder/softer)
 x   - on rhythm slash represents muted slash
 o   - on rhythm slash represents single note slash


If There Are Any Comments or Corrections What Soever Email Me At:
noxid_lennie@hotmail.com  - Peace~~
Tap to rate this tab
# A B C D E F G H I J K L M N O P Q R S T U V W X Y Z