Song name
# A B C D E F G H I J K L M N O P Q R S T U V W X Y Z

Beck - This Girl That I Know tab

Tabbed By - Juggins767
email - airguitardude52@msn.com

Tuning - Standard EADGBE

First tab. Honest. Tell me what you think.

This songs very free flowing and Beck probably just improvised parts so bear with me if 
not accurate enough for you. Keep a Funky slide feel throughout.

INTRO:

E|------------------------7/9-7--6-7---|
B|-----7----7---------7---7/9-7--6-7---|
G|---7-7--7-7-------7-7---7/9-7--6-7---|
D|-------------------------------------|
A|-------------------------------------|
E|-------------------------------------|

VERSE:

E|-------------------------------------|
B|-------------------------------------|
G|----------------------------9--------|
D|-----------------------9h11----------|
A|------------------------------8-9----|
E|-------------------------------------|


E|-----------------------------------------7-x-------|
B|---------------------------------------6-7-x-7-6---|
G|----------------------------9----------6-7-x-7-6---|
D|-----------------------9h11----------------------6-|
A|------------------------------8-9------------------|
E|---------------------------------------------------|

CHORUS:

E|------------------------------------------------------------|
B|-----------------------8------------------8-----------------|
G|-------9-9--9-9----7h9------6---------7h9------6------------|
D|-------------------------9------------------9----------6---6|
A|------------------------------------------------------------|
E|------------------------------------------------------------|

E|------------------------------------------------------------|
B|-----------------------8------------------8-----------------|
G|-------9-9--9-9----7h9------6---------7h9------6------------|
D|-------------------------9------------------9---------------|
A|------------------------------------------------------------|
E|------------------------------------------------------------|


E|--------------------------|
B|--------8-----------------|
G|----7h9------6------------|
D|----------9------------6--|
A|--------------------------|
E|--------------------------|

VERSE:

E|----------------------------------------------------------------------------|
B|----------------------------------------------------------------------8-9---|
G|----------------------------9----------------------------9--9---------------|
D|-----------------------9h11------------------------9h11----------11---------|
A|------------------------------8-9-------------------------------------------|
E|----------------------------------------------------------------------------|


E|---------------------------------------x/7------------|
B|---------------------------------------x/7------------|
G|----------------------------9----------x/7------------|
D|-----------------------9h11---------------------------|
A|------------------------------8-9---------------------|
E|------------------------------------------------------|

CHORUS:

E|------------------------------------------------------------|
B|-----------------------8------------------8-----------------|
G|-------9-9--9-9----7h9------6---------7h9------6------------|
D|-------------------------9------------------9---------------|
A|------------------------------------------------------------|
E|------------------------------------------------------------|

E|------------------------------------------------------------|
B|-----------------------8------------------8-----------------|
G|-------9-9--9-9----7h9------6---------7h9------6------------|
D|-------------------------9------------------9---------------|
A|------------------------------------------------------------|
E|------------------------------------------------------------|

E|--------------------------|
B|--------8-----------------|
G|----7h9------6------------|
D|----------9---------------|
A|--------------------------|
E|--------------------------|

END JAM:


E|----7--------------------7--------------------------------|
B|------7----6/7-7-------6-------7-7------------------------|
G|------7----6/7-7-------6-------7-7-----------------9------|
D|----------------------------------------------9h11--------|
A|-----------------------------------------------------8-9--|
E|----------------------------------------------------------|

E|----------7---------------------------|
B|----6/7-7-7------6--------7-----------| This parts very free flowing and
G|----6/7-7-7------6--------7-----------| improvised. Some strange noises
D|--------------------------------------| aswell as harmonica which i
A|--------------------------------------| couldnt really tab. Basicly play
E|--------------------------------------| what you feel.


E|------------------------------------------------------------|
B|-----------------------8------------------8-----------------|
G|-------9-9--9-9----7h9------6---------7h9------6------------|
D|-------------------------9------------------9---------------|
A|------------------------------------------------------------|
E|------------------------------------------------------------|

E|--------------------------------------------------------7---|
B|-----------------------8------------------8-------------7---|
G|-------9-9--9-9----7h9------6---------7h9------6------------|
D|-------------------------9------------------9---------------|
A|------------------------------------------------------------|
E|------------------------------------------------------------|

E|---------------------------------------------|
B|--------8------------------------------------|
G|----7h9------6-------------------------------|
D|----------9------------------------5h7-------|
A|---------------------------------------5-----|
E|---------------------------------------------|
Tap to rate this tab
# A B C D E F G H I J K L M N O P Q R S T U V W X Y Z