Song name
# A B C D E F G H I J K L M N O P Q R S T U V W X Y Z

Beck - Spice Of Life tab

Couldn't find the tab anywhere so i decided to do it myself. It was hard to hear the 
guitar so i only tabbed where i could hear it.

Tuning = d# (1/2 step down)     key: /=slide
         A#                          ^=hammer on/pull off
         F#                          x=dead string
         C#
         G#
         D#

  Intro Gt1&2
d#|---------------------------------------------|
A#|---------------------------------------------|
F#|--------------------0-----0------------------| x2
C#|-5-2--2-5--5/7--5-2-0-2---0-2--5--5/7-7--5-2-|
G#|-5-2--2-5--5/7--3-2-x-2---x-2--5--5/7-7--5-2-|
D#|-3-0--0-3--3/5--3-0-3-0---3-0--3--3/5-5--3-0-|

d#|----------------------------------------------------|
A#|----------------------------------------------------|
F#|--------------------0----0--------------------------|
C#|-5-2--2-5--5/7--5-2-0-2--0-2--5--5/7--7-7-7-7-7-7-7-|
G#|-5-2--2-5--5/7--5-2-x-2--x-2--5--5/7--7-7-7-7-7-7-7-|
D#|-3-0--0-3--3/5--3-0-3-0--3-0--3--3/5--5-5-5-5-5-5-5-|

      Verse Gt1
d#|-------------------------------------------------------------------|
A#|-------------------------------------------------------------------|
F#|-2------------------------------------------------------------5--6-|
C#|-2------------------------------------------------------------5--6-|x2
G#|-0 0000000000000000000000000000000000000000000000000000000000-3--4-|
D#|-------------------------------------------------------------------|
   pm ..........................................................
         Gt2
d#|-------------------------------------------------------------------|
A#|-------------------------------------------------------------------|
F#|-2---------------------------------2--------------------------5--6-|
C#|-2---------------------------------2--------------------------5--6-|x2
G#|-0---------------------------------0--------------------------3--4-|
D#|-------------------------------------------------------------------|

      Pre-chorus Gt1&2
d#|----------------|
A#|----------------|
F#|----------------|
C#|-2-4-xxx-4------|x4
G#|-2-4-xxx-4------|
D#|-0-2-xxx-2------|

      Chorus Gt1&2
d#|-------------------|
A#|-------------------|
F#|-55-6-7------------|
C#|-55-6-7-5-2------2-|x4
G#|-33-4-5-5-2------2-|
D#|--------3-0--3-3-0-|

d#|-------------|    d#----------------|
A#|-------------|    A#----------------|
F#|-5-6-7---0---|    F#-5-6-7----------|
C#|-5-6-7-2-0-2-|x3  C#-5-6-7-let ring-|
G#|-3-4-5-2-x-2-|    G#-3-4-5----------|
D#|-------0-3-0-|    D#----------------|

     Break
d#|----------------------------------------------------------|
A#|----------------------------------------------------------|
F#|--------------------0-----0-------------------------------|
C#|-5-2--2-5--5/7--5-2-0-2---0-2--5--5/7-7--5-2--5-2-2-5-5/7-|
G#|-5-2--2-5--5/7--3-2-x-2---x-2--5--5/7-7--5-2--5-2-2-5-5/7-|
D#|-3-0--0-3--3/5--3-0-3-0---3-0--3--3/5-5--3-0--3-0-0-3-3/5-|

     Verse2 Gt1
d#|-------------------------------------------------------------------|
A#|-------------------------------------------------------------------|
F#|-2------------------------------------------------------------5--6-|
C#|-2------------------------------------------------------------5--6-|x2
G#|-0 0000000000000000000000000000000000000000000000000000000000-3--4-|
D#|-------------------------------------------------------------------|
   pm ..........................................................
        Gt2
d#|-------------------------------------------------------------------|
A#|-------------------------------------------------------------------|
F#|-2---------------------------------2--------------------------5--6-|
C#|-2---------------------------------2--------------------------5--6-|x2
G#|-0---------------------------------0--------------------------3--4-|
D#|-------------------------------------------------------------------|

      Pre-chorus2 Gt1&2
d#|----------------|
A#|----------------|
F#|----------------|
C#|-2-4-xxx-4------|x4
G#|-2-4-xxx-4------|
D#|-0-2-xxx-2------|

      Chorus2 Gt1&2
d#|-------------------|
A#|-------------------|
F#|-55-6-7------------|
C#|-55-6-7-5-2------2-|x4
G#|-33-4-5-5-2------2-|
D#|--------3-0--3-3-0-|

d#|-------------|    d#----------------|
A#|-------------|    A#----------------|
F#|-5-6-7---0---|    F#-5-6-7----------|
C#|-5-6-7-2-0-2-|x3  C#-5-6-7-let ring-|
G#|-3-4-5-2-x-2-|    G#-3-4-5----------|
D#|-------0-3-0-|    D#----------------|

       Solo
d#|-----------------------10b--8^10^8\7^8^7---------------------|
A#|---10----10----10----10-----------------8^10--8^10^8^10^8/7--|
F#|-/9--12b---12b---12b-----------------------------------------|
C#|-------------------------------------------------------------|
G#|-------------------------------------------------------------|
D#|-------------------------------------------------------------|

d#|----------------------------------------------------------|
A#|-7^8^7^8-------------------------------------------10-----|
F#|--------7-7/9\7-9b-7^9------7--------9-----9-----9---12b--|
C#|------------------------9^0--7^9--/12---12b---12b---------|
G#|----------------------------------------------------------|
D#|----------------------------------------------------------|

d#|-----17----17----17----17----17----17----17-21b--|
A#|-/17---20b---20b---20b---20b---20b---20b---------|
F#|-------------------------------------------------|
C#|-------------------------------------------------|
G#|-------------------------------------------------|
D#|-------------------------------------------------|

d#|-20^21^20-17^19^17-------------------------------------|
A#|------------------17^19^17/15---15^17~-----------------|
F#|-----------------------------17--------17b-17^14--14---|
C#|------------------------------------------------17-----|
G#|-------------------------------------------------------|
D#|-------------------------------------------------------|

d#|---------------------22b--|
A#|-----------------22-------|
F#|------------17-21--21-----|
C#|----17-19-17--------------|
G#|-/19----------------------|
D#|--------------------------|

      Break After Solo  Gt1
d#|----------------------------------------------|
A#|----------------------------------------------|
F#|----------------------------------------------|
C#|----------------------------------------------|x4
G#|----------------------5^7-5-5-----------------|
D#|-3-0-3-0-345--3-0-3-0------7-7--03^5-3-0-3-0--|

d#|----------------------------------------------|
A#|----------------------7/9-7-7-----------------|
F#|-5---5---567--5---5--------9-9--5^7--5-5------|
C#|---7---7--------7---7-----------------7-7-----|x4
G#|----------------------------------------------|
D#|----------------------------------------------|

     Pre-chorus3 Gt1&2
d#|----------------|
A#|----------------|
F#|----------------|
C#|-2-4-xxx-4------|x4
G#|-2-4-xxx-4------|
D#|-0-2-xxx-2------|

      Chorus3 Gt1&2
d#|-------------------|
A#|-------------------|
F#|-55-6-7------------|
C#|-55-6-7-5-2------2-|x4
G#|-33-4-5-5-2------2-|
D#|--------3-0--3-3-0-|

d#|-------------|    d#----------------|
A#|-------------|    A#----------------|
F#|-5-6-7---0---|    F#-5-6-7----------|
C#|-5-6-7-2-0-2-|x3  C#-5-6-7-let ring-|
G#|-3-4-5-2-x-2-|    G#-3-4-5----------|
D#|-------0-3-0-|    D#----------------|

   Outro Gt1&2
d#|---------------------------------------------|
A#|---------------------------------------------|
F#|--------------------0-----0------------------| x3
C#|-5-2--2-5--5/7--5-2-0-2---0-2--5--5/7-7--5-2-|
G#|-5-2--2-5--5/7--3-2-x-2---x-2--5--5/7-7--5-2-|
D#|-3-0--0-3--3/5--3-0-3-0---3-0--3--3/5-5--3-0-|

d#|-----------------------------------------|
A#|-----------------------------------------|
F#|--------------------0-----0--------------|
C#|-5-2--2-5--5/7--5-2-0-2---0-2--5--5/7-7--|
G#|-5-2--2-5--5/7--3-2-x-2---x-2--5--5/7-7--|
D#|-3-0--0-3--3/5--3-0-3-0---3-0--3--3/5-5--|
Tap to rate this tab
# A B C D E F G H I J K L M N O P Q R S T U V W X Y Z