Song name
# A B C D E F G H I J K L M N O P Q R S T U V W X Y Z

Beck - Pressure Zone tab

Pressure Zone by Beck
(standard tuning)

 h   hammer on      /   slide up   
 p   pull off       \   slide down       
 b   bend           *   natural harmonic 
 pb  pre bend       ra  rake             
 r   release bend   x   dead note  

|--------------|
|--------------|
|--------------|
|---------5-5--|
|--5----3-3-3--|
|--3----1------|
6 times

|---------------|
|---------------|
|---------------|
|-----3---------|
|--5--1---3--2--|
|--3------1--0--|
4 times

|--------------------------------|
|--------------------------------|
|--------------------------------|
|--5--5----2--2----5--5----2--2--|
|--3--3----0--0----3--3----0--0--|
|--------------------------------|


|--------------|
|--------------|
|--------------|
|---------5-5--|
|--5----3-3-3--|
|--3----1------|
6 times

|---------------|
|---------------|
|---------------|
|-----3---------|
|--5--1---3--2--|
|--3------1--0--|
4 times

|--------------------------------|
|--------------------------------|
|--------------------------------|
|--5--5----2--2----5--5----2--2--|
|--3--3----0--0----3--3----0--0--|
|--------------------------------|


|--------------|
|--------------|
|--------------|
|---------5-5--|
|--5----3-3-3--|
|--3----1------|
2 times wait for a while then 2 more times

|---------------|
|---------------|
|---------------|
|-----3---------|
|--5--1---3--2--|
|--3------1--0--|
4 times

|--------------------------------|
|--------------------------------|
|--------------------------------|
|--5--5----2--2----5--5----2--2--|
|--3--3----0--0----3--3----0--0--|
|--------------------------------|

|--------------|
|--------------|
|--------------|
|---------5-5--|
|--5----3-3-3--|
|--3----1------|
4 times

Solo Guitar 1 (2:36)
|----------------------------------|
|----------------------------------|
|--5--5--5--3---------5--5--5h6----|
|--------------------5-------------|
|----------------------------------|
|----------------------------------|
Theres more to the part that guitar 1 plays but its spaced out 
enough for guitar 2 to play it. That makes the song easier.


Solo Guitar 2 (2:38)
|--b10--pb10--r10--------------------------------/15--15-15-15-15-15-15--
|------------------------8---11--11--11br-8------------------------------
|------------------------------------------------------------------------
|------------------------------------------------------------------------
|------------------------------------------------------------------------
|------------------------------------------------------------------------


---22-----22---19--19--19\---15~---13--15--13--15--15~---/10~--/10\-/10-|
-----20-----------------------------------------------------------------|
------------------------------------------------------------------------|
------------------------------------------------------------------------|
------------------------------------------------------------------------|
------------------------------------------------------------------------|
Tap to rate this tab
# A B C D E F G H I J K L M N O P Q R S T U V W X Y Z