Guitaretab - guitar tabs
Song name
# A B C D E F G H I J K L M N O P Q R S T U V W X Y Z

Becoming The Archetype - Fire Made Flesh tab

	Fire Made Flesh
	  by Becoming the Archetype
	  from their second album "The Physics of Fire"
	  Copyright  2007 Solid State Records

	As tabbed by ILoveDTandBTA

  For the riffs, I usually just made up names from the lyrics.
	The lyrics are awesome, by the way.

  *Intro*			 (last time)
D|-----------------------------------------|---|------------------|
A|-----------------------------------------|---|------------------|
F|-----------------------------------------|---|------------------|
C|--7-7777-10-8-7-----8--7-7777-10-8-7-----|---|------------------|  x2
G|----------------10-------------------8~--|-6-|------------------|
C|-----------------------------------------|---|------------------|


  *Fire From Heaven*  0:16   (PM 3rd and 4th time)
D|----------------------------------------------------------------|
A|----------------------------------------------------------------|
F|----------------------------------------------------------------|
C|----------------------------------------------------------------|  x6
G|----0-3-5---6-6-5-3---0-3-5---3---0-3-5---6-6-5-3----0-3-5---3--|
C|--0-------0---------0-------0---0-------0----------0-------0----|


  *Witness the Fire*  0:49 
D|----------------------------------------------------------------|
A|----------------------------------------------------------------|
F|----------------------------------------------------------------|
C|--0-----2222-0-----2222-3---------------3-2---5-----------------|  x4
G|--0----------0------------5--3-0--0-2-3-----3-------------------|
C|--0-000------0-000----------------------------------------------|


  *Belief/Disbelief*  1:14     (each note x4)
D|----------------------------------------------------------------|
A|----------------------------------------------------------------|
F|----------------------------------------------------------------|
C|--------3-2-2-----------3-2-------------3-2-2---------3-3-3---5-|  x2
G|--0-0-3-------3-3-3-0-3-----3-1-1-0-0-3-------3-3-3-0-------0---|
C|----------------------------------------------------------------|


  *Carry the Flame*  1:34		 don't play 4th and 8th time
D|--------------------------------------|----|--------------------|
A|--------------------------------------|----|--------------------|
F|--------14-----------14-----------14--|----|--------------------|
C|--12-15-----12-12-15-----12-12-15-----|-12-|--------------------|  x8
G|--------------------------------------|----|--------------------|
C|--------------------------------------|----|--------------------|

[ Tab from: http://www.guitaretab.com/b/becoming-the-archetype/107280.html ]
  *They Marched*  1:58
D|----------------------------------------------------------------|
A|----------------------------------------------------------------|
F|----------------------------------------------------------------|
C|--77-77-77-77-77-76-66-66-66-66--66-88-88-88-88-88-888----------|
G|--55-55-55-55-55-55-55-55-55-55--55-55-55-55-55-55-566----------|
C|----------------------------------------------------------------|
		 only play 1st time
D|--------------|---|---------------------------------------------|
A|--------------|---|---------------------------------------------|
F|--------------|---|---------------------------------------------|
C|--88-88-77-77-|---|---------------------------------------------|  x3
G|--66-66-66-66-|-6-|---------------------------------------------|
C|--------------|---|---------------------------------------------|


  *Solo Backing*  2:34
D||---------------------------------------------------------------|
A||o--------------------------------------------------------------|
F||---------------------------------------------------------------|
C||---00-00-00-00-00-00-00-00-00-00--00---------------------------|
G||o--00-00-00-00-00-00-00-00-00-00--00---------------------------|
C||---00-00-00-00-00-00-00-00-00-00--00---------------------------|
						    last time, hold thru
D|-----------------------------------------------||     |----|    bridge
A|----------------------------------------------o||     |----|
F|-----------------------------------------------||     |----|
C|--00-00-00-00-00-0-00-00-00-00-00-0------------||     |-0~-|
G|--00-00-00-00-00-0-00-00-00-00-00-0-----------o||     |-0~-|
C|--00-00-00-00-00-0-00-00-00-00-00-0------------||     |-0~-|


  *Keyboard*  3:00


  *To Reclaim Their Souls*  3:27
D||---------------------------------------------------------------|
A||o--5(x6)--3(x9)--6(x6)--5(x9)--5(x6)--3(x9)--6(x6)--5(x9)------|
F||---------------------------------------------------------------|
C||---------------------------------------------------------------|
G||o--------------------------------------------------------------|
C||---------------------------------------------------------------|

D|----------3(x6)--5(x10)----------3(x6)--5(x10)-----------------||
A|--6(x16)-----------------6(x16)------------------------------o-||
F|---------------------------------------------------------------||
C|---------------------------------------------------------------||
G|-------------------------------------------------------------o-||
C|---------------------------------------------------------------||


  *Outro*  3:54
D|----------------------------------------------------------------|
A|--5-3--6-5--5-3--6-5--5-3--6-5--5-3--6-5--5~--------------------|
F|----------------------------------------------------------------|
C|----------------------------------------------------------------|
G|----------------------------------------------------------------|
C|----------------------------------------------------------------|


Related for Fire Made Flesh tab