Guitaretab - guitar tabs
Song name
# A B C D E F G H I J K L M N O P Q R S T U V W X Y Z

Becoming The Archetype - Monolith tab

	The Monolith
	  by Becoming the Archetype
	  from their second album "The Physics of Fire"
	  Copyright  2007 Solid State Records

	As tabbed by ILoveDTandBTA

 *Intro*
D|-|--------------------------------------------------------------------|
A|-|-o------------------------------------------------------------------|
F|-|--------------------------------------------------------------------|
C|-|--------------------------------------------------------------------|
G|-|-o--3/10-10-10-9-9-9-8-8-8-6-6-6-6----------------------------------|
C|-|-----------------------------------10-10-10-10-10-8-10-10-10-10-10--|
			        
			        (1st ending)
D|-----------------------------|--------------------------------------|-|
A|-----------------------------|------------------------------------o-|-|
F|-----------------------------|--------------------------------------|-|
C|-----------------------------|-8----------------9-------------------|-|
G|--10-10-10-9-9-9-8-8-8-6-6-6-|---10-10-10-10-10---10-10-10-10-10--o-|-|
C|-----------------------------|--------------------------------------|-|
 
  (2nd ending)	
D|---------------------------------------|
A|---------------------------------------|
F|---------------------------------------|
C|--8-8-8-8----8-9-9-9-9-9-9-9-9-9-9-9-9-|
G|----------10---------------------------|
C|---------------------------------------|

 *Verse*	"I stood at the foot of the mountain..."
D|-|-------------------------------------------------------|
A|-|-o-----------------------------------------------------|
F|-|-------------------------------------------------------|
C|-|----5-5-X-X-4-4-X-X-1----------------------------------|
G|-|-o--5-5-X-X-4-4-X-X---3-3-3-3-3-1-3-3-3-3-3------------|
C|-|----5-5-X-X-4-4-X-X------------------------------------|

  1st ending
D|------------------------------------------------------|-|
A|----------------------------------------------------o-|-|
F|------------------3-----------4-----------------------|-|
C|--5-5-X-X-4-4-X-X---5-5-5-5-5---5-5-5-5-5-------------|-| 
G|--5-5-X-X-4-4-X-X-----------------------------------o-|-|
C|--5-5-X-X-4-4-X-X-------------------------------------|-|

  2nd ending
D|--------------------------|
A|--------------------------|
F|--------------------------|
C|--5-5-X-X-X-X-X-X-8-------|     
G|--5-5-X-X-X-X-X-X-8-------|
C|--5-5-X-X-X-X-X-X-8-------|

 *Bridge* (play x4)  	"I heard the sound..."
D|--------------------------------------------------------|
A|--------------------------------------------------------|
F|--5-5-5-5-X-X-5--5-5-5/8-8-8----------------------------|
C|--5-5-5-5-X-X-5--5-5-5/8-8-8-5-5-5-5--5-5-8-8-8---------|
G|--3-3-3-3-X-X-3--3-3-3/6-6-6-5-5-5-5--5-5-8-8-8---------|
C|-----------------------------5-5-5-5--5-5-8-8-8---------|
[ Tab from: http://www.guitaretab.com/b/becoming-the-archetype/155515.html ]
						       end
D|-------------------------------------------------|  |---|
A|-------------------------------------------------|  |---|
F|--5-5-5-5-X-X-5--5-5-5/8-8-8---------------------|  |-5-|
C|--5-5-5-5-X-X-5--5-5-5/8-8-8-5-5-5-5--5-5-5-5-5--|  |-5-|
G|--3-3-3-3-X-X-3--3-3-3/6-6-6-5-5-5-5--5-5-5-5-5--|  |-3-|
C|-----------------------------5-5-5-5--5-5-5-5-5--|  |---|

"I ascended to the top of the mountain.
 I stood in the center of the flame, yet I was not consumed."

 *Solo Riff* (play x2)
D|--------------------------------------------------------|
A|--------------------------------------------------------|
F|--------------------------------------------------------|
C|--------------------------------------------------------|     
G|--6-X-X-8-X-X-9p8-6-X-X-X-5-5-5-5-5-5-------------------|
C|----------------------------------------9-9-9-9-9-9-----|

  1st ending
D|--------------------------------------------------------|
A|--------------------------------------------------------|
F|--------------------------------------------------------|
C|--------------------------5-5-5-5-5-5-9-9-9-9-9-9-------|     
G|--6-X-X-8-X-X-9p8-6-X-X-X-------------------------------|
C|--------------------------------------------------------|

  2nd ending
D|--------------------------------------------------------|
A|--------------------------------------------------------|
F|--------------------------------------------------------|
C|--------------------------5-5-5-5-5-5-5-5-5-5-5-5-------|
G|--6-X-X-8-X-X-9p8-6-X-X-X-------------------------------|
C|--------------------------------------------------------|
						    end
D|---------------------------------------------|   |----|
A|---------------------------------------------|   |----|
F|---------------------------------------------|   |----|
C|--9-9-9-9-9-9-9-9-9-9-9-9--------------------|   |-10-|
G|---------------------------------------------|   |----|
C|---------------------------------------------|   |----|

 *Bridge 2a*  (play x1)	    "I ascended..."
D|--------------------------------------------------------|
A|--------------------------------------------------------|
F|--------------------------------------------------------|
C|--10--5-6--3--3-5--1-0-0--10--5-6--3--3-5--1-0-0--------|     
G|--10--5-6--3--3-5--1-0-0--10--5-6--3--3-5--1-0-0--------|
C|--10--5-6--3--3-5--1-0-0--10--5-6--3--3-5--1-0-0--------|

 *Bridge 2b*  (play x2)
D|--------------------------------------------------------|
A|--------------------------------------------------------|
F|--------------------------------------------------------|
C|--10--10-5-6-x-x-x-6-x-x-6-x-x-3-x-3-x-3-5-1-0-0--------|     
G|--10--10-5-6-x-x-x-6-x-x-6-x-x-3-x-3-x-3-5-1-0-0--------|
C|--10--10-5-6-x-x-x-6-x-x-6-x-x-3-x-3-x-3-5-1-0-0--------|


 *Bridge 2a* (play x1)

  Then:
D|-----------------------------------------------------|
A|--6-6-6-6-6-6-6-6-6-6-6-6-8-8-8-8-8-8-8-8-8-8-8-8----|
F|-----------------------------------------------------|
C|-----------------------------------------------------|     
G|-----------------------------------------------------|
C|-----------------------------------------------------|


 *Intro*

 *Verse*

 *Ending*
D|--------------------------|
A|--------------------------|
F|--------------------------|
C|--5-5-X-X-X-X-X-X-8-10\---|     
G|--5-5-X-X-X-X-X-X-8-10\---|
C|--5-5-X-X-X-X-X-X-8-10\---|

Hope you guys like it! Post comments and tell me what you think.
Related for Monolith tab