Guitaretab - guitar tabs
Song name
# A B C D E F G H I J K L M N O P Q R S T U V W X Y Z

Becoming The Archetype - Nocturne tab

Riff (A) (intro)
                                                    3
e|-------------------------------------------------------|
b|---------4---------------------------------------------|
g|-------3---3--------4---4---------8--------------8-----|
d|-----4------4-----8----8------9-8---8-9------9-8---8-9-|
a|---6------------8-----9-----11-------------11----------|
D|-------------------------------------------------------|

e|------------------------------------------------------|
b|---------4--------------------------------------------|
g|-------3---3--------4---4---------8-------------------|
d|-----4------4-----8----8------9-8---8-9---------------|
a|---6------------8-----9-----11-------------11--(11)---|
D|------------------------------------------------------|

Riff (B)

e|------------------------------------------------------|
b|------------------------------------------------------|
g|-------2-3------2-3------2-3-----2-3------------------|
d|-----4--------4--------4-------4----------------------|
a|---6--------6--------5-------5------------------------|
D|------------------------------------------------------|

e|------------------------------------------------------|
b|------------------------------------------------------|
g|-------2-3------2-3------2-3--------------------------|
d|-----4--------4--------4------------------------------|
a|---6--------6--------5----------5--(5)----------------|
D|------------------------------------------------------|

Riff (A) w/ piano
                                                    3
e|-------------------------------------------------------|
b|---------4---------------------------------------------|
g|-------3---3--------4---4---------8--------------8-----|
d|-----4------4-----8----8------9-8---8-9------9-8---8-9-|
a|---6------------8----9-----11-------------11-----------|
D|-------------------------------------------------------|

e|------------------------------------------------------|
b|---------4--------------------------------------------|
g|-------3---3--------4---4---------8-------------------|
d|-----4------4-----8----8------9-8---8-9---------------|
a|---6------------8-----9-----11-------------11--(11)---|
D|------------------------------------------------------|

Riff (B) again

e|------------------------------------------------------|
b|------------------------------------------------------|
g|-------2-3------2-3------2-3-----2-3------------------|
d|-----4--------4--------4-------4----------------------|
a|---6--------6--------5-------5------------------------|
D|------------------------------------------------------|

e|------------------------------------------------------|
b|------------------------------------------------------|
g|-------2-3------2-3------2-3--------------------------|
d|-----4--------4--------4------------------------------|
a|---6--------6--------5----------5--(5)----------------|
D|------------------------------------------------------|

Riff (A) with drums and piano
                                                    3
e|-------------------------------------------------------|
b|---------4---------------------------------------------|
g|-------3---3--------4---4---------8--------------8-----|
d|-----4------4-----8----8------9-8---8-9------9-8---8-9-|
a|---6------------8-----9-----11-------------11----------|
D|-------------------------------------------------------|
[ Tab from: http://www.guitaretab.com/b/becoming-the-archetype/163237.html ]
e|------------------------------------------------------|
b|---------4--------------------------------------------|
g|-------3---3--------4---4---------8-------------------|
d|-----4------4-----8----8------9-8---8-9---------------|
a|---6------------8-----9-----11-------------11--(11)---|
D|------------------------------------------------------|

Riff (B) with distortion

-the distorted guitar does a slide down the neck right
before this, but i think it is your choice to do it or not

                                                    4
e|------------------------------------------------------|
b|------------------------------------------------------|
g|------------------------------------------------------|
d|---1------1-1---1--3--0-(0)--1-0-0-1-0-0------------|
a|---1------1-1---1--3--0-(0)--1-0-0-1-0-0------------|
D|---1------1-1---1--3--0-(0)--1-0-0-1-0-0------------|

Riff (A) with drums and piano again
                                                    3
e|-------------------------------------------------------|
b|---------4---------------------------------------------|
g|-------3---3--------4---4---------8--------------8-----|
d|-----4------4-----8----8------9-8---8-9------9-8---8-9-|
a|---6------------8-----9-----11-------------11----------|
D|-------------------------------------------------------|

e|------------------------------------------------------|
b|---------4--------------------------------------------|
g|-------3---3--------4---4---------8-------------------|
d|-----4------4-----8----8------9-8---8-9---------------|
a|---6------------8-----9-----11-------------11--(11)---|
D|------------------------------------------------------|

Riff (C) with distortion again
                                                    4
e|------------------------------------------------------|
b|------------------------------------------------------|
g|------------------------------------------------------|
d|---1------1-1---1--3--0-(0)--1-0-0-1-0-0------------|
a|---1------1-1---1--3--0-(0)--1-0-0-1-0-0------------|
D|---1------1-1---1--3--0-(0)--1-0-0-1-0-0------------|


Riff (A) & (C) at the same time
                                                    4
e|------------------------------------------------------|
b|------------------------------------------------------|
g|------------------------------------------------------|
d|---1------1-1---1--3--0-(0)--1-0-0-1-0-0------------|
a|---1------1-1---1--3--0-(0)--1-0-0-1-0-0------------|
D|---1------1-1---1--3--0-(0)--1-0-0-1-0-0------------|

                                                    4
e|-------------------------------------------------------|
b|---------4---------------------------------------------|
g|-------3---3--------4---4---------8--------------8-----|
d|-----4------4-----8----8------9-8---8-9------9-8---8-9-|
a|---6------------8-----9-----11-------------11----------|
D|-------------------------------------------------------|

Riff (A) (outro)
                                                    3
e|-------------------------------------------------------|
b|---------4---------------------------------------------|
g|-------3---3--------4---4---------8--------------8-----|
d|-----4------4-----8----8------9-8---8-9------9-8---8-9-|
a|---6------------8-----9-----11-------------11----------|
D|-------------------------------------------------------|

e|------------------------------------------------------|
b|---------4--------------------------------------------|
g|-------3---3--------4---4---------8-------------------|
d|-----4------4-----8----8------9-8---8-9---------------|
a|---6------------8-----9-----11-------------11--(11)---|
D|------------------------------------------------------|
Related for Nocturne tab