Guitaretab - guitar tabs
Song name
# A B C D E F G H I J K L M N O P Q R S T U V W X Y Z

Becoming The Archetype - How Great Thou Art tab

Band: Becoming The Archetype
Album: Dichotomy
Song: How Great Thou Art

Tuning: Drop C

Tabbed by: ChaoticSymphony

Iím not sure if this is a twelve string guitar, but it damn well could be. 
There are some parts Iím not completely sure how BTA plays, so, youíll have to experiment.



||----------------------------------------------------------------|
||----------------------------------------------------------------|
||----------------------------------------------------------------|
||----------------------------------------------------------------|
||--------0----3-----2-----------------0--------------2---3~~~----|
||------0-----(0)---(0)---3---3-5----0-----5-----4----------------|
||----0-----0-----0-----0---0------0----0-(0)-0-(0)-0---0---------|


||----------------------------------------------------------------|
||----------------------------------------------------------------|
||----------------------------------------------------------------|
||-------------2-----0--------------------------------------------|
||--------0----3-----2----2---2-3------1---1---1---2---2---3---0--|
||------0-----------------3---3-5--3---3---3---3---3---3---3---0--|
||----0-----0-----0-----0---0--------0---0---0---0---0---0---0---0|


||----------------------------------------------------------------|
||----------------------------------------------------------------|
||----------------------------------------------------------------|
||-------------2-----0--------------------------------------------|
||--------0----3-----2----2---2-3------0-------5---2---3----------|
||------0-----------------3---3-5----0---------------------4~~~---|
||----0-----0-----0-----0---0------0-----0---0---0---0---0--------|


||----------------------------------------------------------------|
||----------------------------------------------------------------|
||----------------------------------------------------------------|
||-------------2-----0--------------------------------------------|
||--------0----3-----2----2---2-3------1---1---1---2---2---3---0--|
||------0-----------------3---3-5--3---3---3---3---3---3---3---0--|
||----0-----0-----0-----0---0--------0---0---0---0---0---0---0---0|


[ Tab from: http://www.guitaretab.com/b/becoming-the-archetype/179109.html ]
Now hereís where (I think) it splits into two guitar parts.
Guitar 1 repeats, and Guitar 2 plays an octave higher.


Guitar 1
||----------------------------------------------------------------|
||----------------------------------------------------------------|
||----------------------------------------------------------------|
||-------------2-----0--------------------------------------------|
||--------0----3-----2----2---2-3------0---5---2---3--------------|
||------0-----------------3---3-5----0-----------------4~~~-------|
||----0-----0-----0-----0---0------0-----0---0---0---0------------|

Guitar 2
||----------------------------------------------------------------|
||--------3----6-----5----1---1-3------3---8---5---6--------------|
||-----------------------------------------------------6~~~-------|
||----------------------------------------------------------------|
||------0----------------------------0----------------------------|
||----0----------------------------0------------------------------|


||================================================================|


Guitar 1
||-----------------------------------------------------------------------------------------|
||--------------------------------------------------I spread this part out to show---------|
||--------------------------------------------------the timing, itís still the same speed--|
||-------------2-----0---------------------------------------------------------------------|
||--------0----3-----2----2---2-3-------1------1------1------2------2--------3--------0----|
||------0-----------------3---3-5--3----3------3------3------3------3--------3--------0----|
||----0-----0-----0-----0---0--------0------0-----0-------0------0-------0--------0-------0|

Guitar 2
||---------------------------------10--------------------101213--------12-13p12p10/8--10---|
||--------3----6-----5----1---1-3----------------------------------------------------------|
||---------------------------------------------------------------------------^^^-----------|
||--------------------------------------------------------------------These pulloffs are---|
||------0-------------------------------------------------------------all one beat---------|
||----0------------------------------------------------------------------------------------|
Related for How Great Thou Art tab