Guitaretab - guitar tabs
Song name
# A B C D E F G H I J K L M N O P Q R S T U V W X Y Z

Becoming The Archetype - Evil Unseen tab

This is my first tab so please rate.  It's not 100% perfect but it's close.

D|-----------------------------------------------|
A|-----------------------------------------------|
F|-----------------------------------------------|   2X
C|-3-2-1-3-2-1--3--4--6--3-2-1-3-2-1-3--4--6--5--|
G|-3-2-1-3-2-1--3--4--6--3-2-1-3-2-1-3--4--6--5--|
C|-3-2-1-3-2-1--3--4--6--3-2-1-3-2-1-3--4--6--5--|
PM . . . . . .           . . . . . .     
[ Tab from: http://www.guitaretab.com/b/becoming-the-archetype/182011.html ]
D|-----------------------------------------------------------------|
A|-----------------------------------------------------------------|
F|-----------------------------------------------------------------|   1X
C|-----------------------------------------------------------------|
G|-----------------------------------------------------------------|
C|-3-2-1-3-2-1-3--4--6--3-2-1-3-2-1-3--4--6--5--|
PM .  .  .  .  .  .              .  .  .  .  .  .    

D|-------------------------------------------------------|
A|-------------------------------------------------------|
F|-------------------------------------------------------|
C|-------------------------------3-2-1-3-2-1-3-2-1-3-2-1-|   1x
G|-------------------------------3-2-1-3-2-1-3-2-1-3-2-1-|
C|-1-2-3-1-2-3-3--4--6--3-2-1-3-2-1-3-2-1-3-2-1-|
PM .  .  .  .  .  .              . . . . . . . . . . . . 

.= Palm mute
= Tremolo pick
Related for Evil Unseen tab