Song name
# A B C D E F G H I J K L M N O P Q R S T U V W X Y Z

Becoming The Archetype - How Great Thou Art tab

Help us improve GuitareTab! Take a short survey!
INTRO
Gtr. 1 (left)
D----------------------------------------------------|
A----------------------------------------------------|
F----------------------------------------------------|
C-------0---0-------------------0---0-------0--------|
G-----0-----8---7---3---3/5---0-----5---4---7---8~---|
C---0-----0---0---0---0-----0-----0---0---0---0------|


0:06
|-------------------------------------------------------------|
|-------------------------------------------------------------|
|-------------------------------------------------------------|
|-------0---0-------0-------0---0---0---0---2---2---3---0-----|
|-----0-----8---7---3---3/5-1---1---1---1---3---3---3---0-----|
|---0-----0---0---0---0-------3---3---3---3---5---5---5-0-----|
|
|Gtr. 2 (right)
|-------------------------------------------------------------|
|-------------------------------------------------------------|
|-------------------------------------------------------------|
|-------0---7---5---2---2/3-3---3---3---3---2---2---3---0-----|
|-----0---------------------------------------3---3-------0---|
|---0-----0---0---0---0-------3---3---3---3-----------0-------|


0:14
|----------------------------------------------------|
|----------------------------------------------------|
|----------------------------------------------------|
|-------0---7---5---2---2/3-----0---5---2---3---3~---|
|-----0-----------------------0----------------------|
|---0-----0---0---0---0-----0-----0---0---0---0------|
|
|
|----------------------------------------------------|
|----------------------------------------------------|
|----------------------------------------------------|
|-------0---0-------------------0---5---2---3---3~---|
|-----0-----8---7---3---3/5---0----------------------|
|---0-----0---0---0---0-----0-----0---0---0---0------|

|-------------------------------------------------------------|
|-------------------------------------------------------------|
|-----------5---3---0---0-2-----------------------------------|
|-------0---7---5---2---2/3-0---0---0---0---2---2---3---0-----|
|-----0---------------------1---1---1---1---3---3---3---0-----|
|---0-----0---0---0---0-------3---3---3---3---5---5---5-0-----|
|
|
|-------------------------------------------------------------|
|-------------------------------------------------------------|
|-------------------------------------------------------------|
|-------0---7---5---2---2/3-3---3---3---3---2---2---3---0-----|
|-----0---------------------------------------3---3-------0---|
|---0-----0---0---0---0-------3---3---3---3-----------0-------|


0:27
|-----------1---0------------------------------------|
|-------3-----------1---1h3-----3---8---5---6---6~---|
|-----2-----------------------2----------------------|
|---0-----0---0---0---0-----0-----0---0---0---0------|
|----------------------------------------------------|
|----------------------------------------------------|
|
|
|----------------------------------------------------|
|----------------------------------------------------|
|----------------------------------------------------|
|-------0---5---3---0---0/2-----0---5---2---3---3~---|
|-----0-----7---5---2---2/3---0----------------------|
|---0-----0---0---0---0-----0-----0---0---0---0------|

|-----------1---0-----------------------------------------------------|
|-------3-----------1---1h3-------------------------------------------|
|-----2---------------------------------------------------------------|
|---0-----0---0---0---0-----0---0---0---0----2-----2-----3-----0------|
|---------------------------1---1---1---1----3-----3-----3-----0------|
|-----------------------------3---3---3---3-----5-----5-----5--0------|
|
|
|---------------------------------------------------------------------|
|---------------------------------------------------------------------|
|---------------------------------------------------------------------|
|-------0---5---3---0---0/2-3---3---3---3----2-----2-----3-----0------|
|-----0-----7---5---2---0/3---------------------3-----3-----------0---|
|---0-----0---0---0---0-------3---3---3---3-----------------0---------|
|
|Fill (Electric Guitar)
|---------------------------10----------10-12-13--12h13p12-----10-----|
|-----------------------------------------------------------13--------|
|---------------------------------------------------------------------|
|---------------------------------------------------------------------|
|---------------------------------------------------------------------|
|---------------------------------------------------------------------|
Related for How Great Thou Art tab