Song name
# A B C D E F G H I J K L M N O P Q R S T U V W X Y Z

Becoming The Archetype - No Fall Too Far tab

No Fall Too Far
  by Becoming the Archetype

From their first album "Terminate Damnation"
Copyright  2005 Solid State Records

Tabbed by Tom Arthur

Drop C Tuning: C-G-C-F-A-D

Everything except the solo should be in here, and
I believe it's all fairly accurate. Enjoy!


  (Intro)
D|----------------------------------------------------------------|
A|----------------------------------------------------------------|
F|----------------------------------------------------------------|
C|--0--10--9-5----------------------------------------------------|
G|--0---8--7-3-T5(x8)-T8(x4)-T7(x4)-T5(x8)-T8(x4)-T7-T7-8---------|
C|--0-------------------------------------------------------------|

D|------------------------------------------------|---------------|
A|------------------------------------------------|---------------|
F|------------------------------------------------|---------------|
C|--0--10--9-5------------------------------------|---------------|
G|--0---8--7-3-T5(x8)-T8(x4)-T7(x4)-T5(x8)-T8(x4)-|-T7-T8-10------|
C|--0---------------------------------------------|---------------|

  0:21
D|----------------------------------------------------------------|
A|----------------------------------------------------------------|
F|----------------------------------------------------------------|
C|--3p0-0-3p0-00-----------------3p0-0-3p0-00---------------------|
G|--3p0-0-3p0-00-5-5-5-5-4-4-4-4-3p0-0-3p0-00-5-5-5-5-3-3-1-1-----|
C|--3p0-0-3p0-00-----------------3p0-0-3p0-00---------------------|

  *Intro*  0:35   with different ending:
D|----------------------------------------------------------------|
A|----------------------------------------------------------------|
F|----------------------------------------------------------------|
C|----------0~----------------------------------------------------|
G|--T7-T7-8-0~----------------------------------------------------|
C|----------0~----------------------------------------------------|

  1:00
D|----------------------------------------------------------------|
A|----------------------------------------------------------------|
F|----------------------------------------------------------------|
C|--0--------------------------------0------------7-----6---------|
G|--0--8---9----6---8----0h5h6-5h6h8-0--8---9-------8-6---7-5-----|
C|--00---0---00---0---00-------------00---0---000-----------------|

D|----------------------------------------------------------------|
A|----------------------------------------------------------------|
F|----------------------------------------------------------------|
C|--0--------------------------------------7-----6----------------|
G|--0--8---9----6---8----0h5h6-5h6h8---------8-6---7-5------------|
C|--00---0---00---0---00------------------------------------------|

D||-------------------------------------------------------------------||
A||o-----------------------------------------------------------------o||
F||-------------------------------------------------------------------||
C||---0----------------------------------0--------------7-----6-------||
G||o--0--8---9---6---8---5---0h5h6-5h6h8-0--8---9---6-----8-7---7-5--o||
C||---00---0---0---0---0---0-------------00---0---0---0---------------||

D|----------------------------------------------------------------|
A|----------------------------------------------------------------|
F|----------------------------------------------------------------|
C|--0--------------------------------------7-----6----------------|
G|--0--8---9----6---8----000000----8-9-------8-7---7-5------------|
C|--00---0---00---0---00-000000-00-----000------------------------|


D|----------------------------------------------------------------|
A|----------------------------------------------------------------|
F|----------------------------------------------------------------|
C|--0--------------------------------------7----------------------|
G|--0--8---9----6---8----000000----8-9-------8-7---8*-------------|
C|--00---0---00---0---00-000000-00-----000------------------------|

D||-------------------------------------------------------------------||
A||o-----------------------------------------------------------------o||
F||-------------------------------------------------------------------||
C||---0----------------------------------0--------------7-----6-------||
G||o--0--8---9---6---8---5---0h5h6-5h6h8-0--8---9---6-----8-7---7-5--o||
C||---00---0---0---0---0---0-------------00---0---0---0---------------||

  1:42
D|----------------------------------------------------------------|
A|--------666-555-----------------666-555-------------------------|
F|----------------7---5-7-----------------7---5-7-----------------|
C|--0--00-----------7-------7--77-----------7---------------------|
G|----------------------------------------------------------------|
C|----------------------------------------------------------------|

D|----------------------------------------------------------------|
A|--------666-555-----------------666-555------5-65---------------|
F|----------------7---5-7-----------------7---------7-------------|
C|--5--55-----------7-------8--88-----------7---------------------|
G|----------------------------------------------------------------|
C|----------------------------------------------------------------|

D||---------------------------------------------------------------|
A||o--------10-10-10-888------------------10-10-10-888------------|
F||---7--77--------------10-7-9-10--7--77--------------10-7-9-10--|
C||---------------------------------------------------------------|
G||o--------------------------------------------------------------|
C||---------------------------------------------------------------|

D|-----------------------------------------------------------------||
A|--------10-10-10-888------------------10-10-10-888--------------o||
F|--7--77--------------10-7-9-10--7--77--------------10-7-9-10-97--||
C|-----------------------------------------------------------------||
G|----------------------------------------------------------------o||
C|-----------------------------------------------------------------||

  2:21
D|-------------------------||-------------------------------------|
A|-------------------------||o------------------------------------|
F|------10----9----5----7--||-------------------------------------|
C|--0----x----x----x----x--||---------------0---------------------|
G|--0----8----7----3----5--||o--00000-0-0-0-0-0-0-00000-----------|
C|--0----------------------||---00000-0-0-0-0-0-0-00000-----------|

D|----------------------------------------------------------------|
A|----------------------------------------------------------------|
F|--------------10------------------------9-----------------------|
C|---------------x------------------------x-----------------------|
G|--00000-0-0-0--8--0-0-00000-00000-0-0-0-7-0-0-00000-------------|
C|--00000-0-0-0-----0-0-00000-00000-0-0-0---0-0-00000-------------|

D|---------------------------------------------------------------||
A|--------------------------------------------------------------o||
F|--------------5------------------------------------------------||
C|--------------x------------------------------------------------||
G|--00000-0-0-0-3-0-0-8-7-5-------------------------------------o||
C|--00000-0-0-0---0-0-------10-8-7-T8-T8-T8-T8-T8-T8-T11-T11-----||

D|----------------------------------------------------------------|
A|----------------------------------------------------------------|
F|------10----9----5----7~----------------------------------------|
C|--0----x----x----x----x~----------------------------------------|
G|--0----8----7----3----5~----------------------------------------|
C|--0-------------------------------------------------------------|

  3:21
D|----------------------------------------------------------------|
A|----------------------------------------------------------------|
F|---------------------------------------3-3-------3-3-----3-3----|
C|--3-3------3-3------3-3------3-3---3-5------3-5------3-5--------|
G|-------3-5------3-5------3-5------------------------------------|
C|----------------------------------------------------------------|

D|----------------------------------------------------------------|
A|----------------------------------------------------4-3---------|
F|------3-3------3-2------3-2------3-2------3-5-3-2--------1-0----|
C|--3-5------3-5------3-5------3-5------3-5---------5-------------|
G|----------------------------------------------------------------|
C|----------------------------------------------------------------|

D|----------------------------------------------------------------|
A|--4-3-------4-3-------4-3--4-3--6-6-------6-6------6-6----------|
F|-------1-0-------1-0-----------------5-7-------5-7------5-7-----|
C|----------------------------------------------------------------|
G|----------------------------------------------------------------|
C|----------------------------------------------------------------|

D|------------6-6------6-6------6-6------6-6------6-8------6-8----|
A|--6-6-8-6-8------6-8------6-8------6-8------6-8------6-8--------|
F|----------------------------------------------------------------|
C|----------------------------------------------------------------|
G|----------------------------------------------------------------|
C|----------------------------------------------------------------|

D|------6-8------6-8\---6-565---5-----6-565---5-------------------|
A|--6-8------6-8--------------8---8-7-------8---8-7---------------|
F|----------------------------------------------------------------|
C|----------------------------------------------------------------|
G|----------------------------------------------------------------|
C|----------------------------------------------------------------|

D|--6-565---5-----------------------------------------------------|
A|--------8---8-7-6~--5~------------------------------------------|
F|----------------------------------------------------------------|
C|----------------------------------------------------------------|
G|----------------------------------------------------------------|
C|----------------------------------------------------------------|

  *Solo Backing*  4:04
D|----------------------------------------------------------------|
A|----------------------------------------------------------------|
F|----------------------------------------------------------------|
C|----------------------------------------------------------------|
G|--0-0--00-0-0--00-0-0--00-0-0--00-1-1--00-1-1--00-1-1--00-1-1---|
C|--0-0--00-0-0--00-0-0--00-0-0--00-1-1--00-1-1--00-1-1--00-1-1---|

D|----------------------------------------------------------------|
A|----------------------------------------------------------------|
F|----------------------------------------------------------------|
C|----------------------------------------------------------------|
G|--0-1-6-0--0-1-6-0--0-1-6-0--0-1-6-0--00-6-5--1-0--6-5--0-1-----|
C|--0-1-6-0--0-1-6-0--0-1-6-0--0-1-6-0--00-6-5--1-0--6-5--0-1-----|

D|----------------------------------------------------------------|
A|----------------------------------------------------------------|
F|----------------------------------------------------------------|
C|----------------------------------------------------------------|
G|--6-5--1-0--6-5--6-5--------------------------------------------|
C|--6-5--1-0--6-5--6-5--------------------------------------------|

D|----------------------------------------------------------------|
A|----------------------------------------------------------------|
F|----------------------------------------------------------------|
C|----------------------------------------------------------------|
G|--0-0--00-0-0--00-0-0--00-0-0--0-1-6-0--0-1-6-0-----------------|
C|--0-0--00-0-0--00-0-0--00-0-0--0-1-6-0--0-1-6-0-----------------|

D|----------------------------------------------------------------|
A|----------------------------------------------------------------|
F|----------------------------------------------------------------|
C|----------------------------------------------------------------|
G|--0-1-6-0--0-1-6-0----00-1-00-6-00-1-00-6-00-1-00-6-00-1-0-6-0--|
C|--0-1-6-0--0-1-6-0-6*-00-1-00-6-00-1-00-6-00-1-00-6-00-1-0-6-0--|

D|----------------------------------------------------------------|
A|----------------------------------------------------------------|
F|----------------------------------------------------------------|
C|----------------------------------------------------------------|
G|--1-00-6-00-1-0-6-0-1-0-6-0-1-00-6-00-1-00-6-00-1-00-6-00-------|
C|--1-00-6-00-1-0-6-0-1-0-6-0-1-00-6-00-1-00-6-00-1-00-6-00-------|

D|----------------------------------------------------------------|
A|----------------------------------------------------------------|
F|----------------------------------------------------------------|
C|------------------------------------0---------------------------|
G|--1-0-6-0-1-00-6-00-1-0-6-0-1-0-6-0-0---------------------------|
C|--1-0-6-0-1-00-6-00-1-0-6-0-1-0-6-0-0---------------------------|

  4:52
D||--------------------------------------------------------------||
A||o------------------------------------------------------------o||
F||--------------------------------------------------------------||
C||------------------------------------7-----6-------------------||
G||o----8-9-6-8-5--0h5h6-5h6h8---8-9-6----8-7--7-5--------------o||
C||---0------------------------0---------------------------------||
      | tremelo |              |tremelo|

D|----------------------------------------------------------------|
A|----------------------------------------------------------------|
F|----------------------------------------------------------------|
C|--0--------------------------------------7-----6----------------|
G|--0--8---9----6---8----000000----8-9-------8-7---7-5------------|
C|--00---0---00---0---00-000000-00-----000------------------------|


D|----------------------------------------------------------------|
A|----------------------------------------------------------------|
F|----------------------------------------------------------------|
C|--0--------------------------------------7----------------------|
G|--0--8---9----6---8----000000----8-9-------8-7---8*-------------|
C|--00---0---00---0---00-000000-00-----000------------------------|

D||--------------------------------------------------------------||
A||o------------------------------------------------------------o||
F||--------------------------------------------------------------||
C||------------------------------------7-----6-------------------||
G||o----8-9-6-8-5--0h5h6-5h6h8---8-9-6----8-7--7-5--------------o||
C||---0------------------------0---------------------------------||

D||---------------------------------------------------------------||
A||o-------------------------------------------------------------o||
F||---------------------------------------------------------------||
C||---3p0-0-3p0-00-----------------3p0-0-3p0-00-------------------||
G||o--3p0-0-3p0-00-5-5-5-5-4-4-4-4-3p0-0-3p0-00-5-5-5-5-3-3-1-1--o||
C||---3p0-0-3p0-00-----------------3p0-0-3p0-00-------------------||

D|----------------------------------------------------------------|
A|----------------------------------------------------------------|
F|----------------------------------------------------------------|
C|----------------------------------------------------------------|
G|--T5-T5-T5-T5-T5-T5-T5-T5-T8-T8-T8-T8-T7-T7-T7-T7---------------|
C|----------------------------------------------------------------|

D|----------------------------------------------------------------|
A|----------------------------------------------------------------|
F|----------------------------------------------------------------|
C|----------------------------------------------------------------|
G|--T5-T5-T5-T5-T5-T5-T5-T5-T8-T8-T8-T8-T7-T7-8\------------------|
C|----------------------------------------------------------------|

Tap to rate this tab
 
# A B C D E F G H I J K L M N O P Q R S T U V W X Y Z