Song name
# A B C D E F G H I J K L M N O P Q R S T U V W X Y Z

Becoming The Archetype - The Monolith tab

The Monolith solo: by Becoming the Archetype from their album The Physics of Fire.

I saw that there were no tabs for the solo online that I could find, so I decided to
one. I apologize if you find any mistakes in it because this was tabbed completely by ear.
find that it is very accurate, and if you play along it sounds almost exactly the same. 
you learn this, it is actually pretty easy to play.

Tuning: drop C


e|---------------------------------------------------------------------|
B|-----------13---(13)-------------------------------------------------|
G|-15-b-(17)-15-b-(17)--15p14p12----12--14--15--12------------(12)-----|
D|------------------------------15-------------------------------------|
A|---------------------------------------------------------------------|
E|---------------------------------------------------------------------|

e|-15-14-13----13-14-15-14-13----13------------------------|
B|----------16----------------16----13----15-----------12--|
G|---------------------------------------------------------|
D|---------------------------------------------------------|
A|---------------------------------------------------------|
E|---------------------------------------------------------|

e|-t20-p14-p11-p8-h11-h14-t20-p14-p11-p8-h11-h14-|
B|-----------------------------------------------|
G|-----------------------------------------------|
D|-----------------------------------------------|
A|-----------------------------------------------|
E|-----------------------------------------------|

e|-t21-p14-p11-p8-h11-h14-t21-p14-p11-p8-h11-h14-|
B|-----------------------------------------------|
G|-----------------------------------------------|
D|-----------------------------------------------|
A|-----------------------------------------------|
E|-----------------------------------------------|

e|-t19-p14-p11-p8-h11-h14-t19-p14-p11-p8-h11-h14-t20--------(20)-------|
B|---------------------------------------------------------------------|
G|---------------------------------------------------------------------|
D|---------------------------------------------------------------------|
A|---------------------------------------------------------------------|
E|---------------------------------------------------------------------|
slide down from the top of the neck
e|--------------------------------10-11-13-13-11-10-11-13-15-13-11-10-11-13|
B|------------------------10-11-13-----------------------------------------|
G|-------------------10-12-------------------------------------------------|
D|-----------10-12-13------------------------------------------------------|
A|10-10-12-13--------------------------------------------------------------|
E|-------------------------------------------------------------------------|

e|-15-h18-15-13-15-13-10-11-13-15-13-11-10-------------(10)-|
B|----------------------------------------------------------|
G|----------------------------------------------------------|
D|----------------------------------------------------------|
A|----------------------------------------------------------|
E|----------------------------------------------------------|

h= hammer on       p= pull off       b= bend      ( )= held note     t= tap with finger
pick   /=slide
Tap to rate this tab
 
# A B C D E F G H I J K L M N O P Q R S T U V W X Y Z