Song name
# A B C D E F G H I J K L M N O P Q R S T U V W X Y Z

Becoming The Archetype - Internal Illumination tab

-----------------------------------------------------------------
Internal Illumination - Becoming the Archetype
-----------------------------------------------------------------
Tabbed by: Jake Miller (millarso)
Email: millarso2.0@gmail.com
Tuning: Drop C

Section 1 (first time has a slow phase-like effect on it)
Both Guitars
D|------------------------------------------------------------------|
A|------------------------------------------------------------------|
F|------------------------------------------------------------------|
C|-----4---4-----------4---4-----------3---3------------3---3-------|x2(not including)
G|-00004-0-4-0-0-0-00004-0-4-0-0-0-00003-0-3-0-0-0-0000-3-0-3-0-0-0-|  ( 1st time    )
C|-00004-0-4-0-0-0-00004-0-4-0-0-0-00003-0-3-0-0-0-0000-3-0-3-0-0-0-|
   ....  .   . . . ....  .   . . . ....  .   . . . ....   .   . . .

D|------------------------------------------------------------------|
A|------------------------------------------------------------------|
F|------------------------------------------------------------------|
C|-----7---7-----------7---7-----------6---6------------6---6-------|x2
G|-00004-0-4-0-0-0-00004-0-4-0-0-0-00003-0-3-0-0-0-0000-3-0-3-0-0-0-|
C|-00004-0-4-0-0-0-00004-0-4-0-0-0-00003-0-3-0-0-0-0000-3-0-3-0-0-0-|
   ....  .   . . . ....  .   . . . ....  .   . . . ....   .   . . .

Section 2
Both Guitars
D|-----------------------------------------------|
A|-----------------------------------------------|
F|-7s-10-------7s-10-------6s-9-------6s-9-------|
C|-x---x-------x---x-------x--x-------x--x-------|
G|-5s--8-------5s--8-------4s-7-------4s-7-------|
C|--------0000--------0000-------0000-------0000-|
          ....        ....       ....       ....

Guitar 1
D|---------------------------------------------------|
A|---------------------------------------------------|
F|-10s-14-------10s-14-------12s-15-------12s-15-----|
C|--x---x--------x---x--------x---x--------x--x------|
G|--8s-12--------8s-12-------10s-13-------10s-13-----|
C|---------0000---------0000---------0000-------0000-|
           ....         ....         ....       ....

Guitar 2
D|-------------------------------------------------|
A|-------------------------------------------------|
F|-7s-10-------7s-10-------9s-12-------9s-12-------|
C|-x---x-------x---x-------x---x--------x--x-------|
G|-5s--8-------5s--8-------7s-10-------7s-10-------|
C|--------0000--------0000--------0000--------0000-|
          ....        ....        ....        ....

Section 3
Both Guitars
D|-------------------------------------------------------------------------|
A|-------------------------------------------------------------------------|
F|-7s-10------------6s-9------------7s-10------------9s-12-----------------|
C|-x---x------------x--x------------x---x------------x---x-////-\\\\\\\\\\-|
G|-5s--8------------4s-7------------5s--8-x-xxx-x-xx-7s-10-/pick-slides\\\-|
C|--------(drums)---------(drums)---------x-xxx-x-xx-------////-\\\\\\\\\\-|
                                
Section 4
Guitar 1
D|------------------------------------------------------|
A|-TP--TP---------TP--TP-------TP--TP-------TP--TP------|
F|-7---10---------7---10-------6---9--------6---9-------|
C|------------------------------------------------------|
G|------------------------------------------------------|
C|----------0000---------0000---------0000---------0000-|

Guitar 2
D|------------------------------------------------------|
A|------------------------------------------------------|
F|------------------------------------------------------|
C|-TP--TP--------TP--TP--------TP--TP-------TP--TP------|
G|-5---8---------5---8---------4---7--------4---7-------|
C|---------0000----------0000---------0000---------0000-|

Guitar 1
D|---------------------------------------------------------|
A|-TP--TP---------TP--TP-------TP--TP-------TP--TP---------|
F|-10--14---------10--14-------12--15-------12--15---------|
C|---------------------------------------------------------|
G|-------------------------------------------------0-0-0-0-|
C|----------0000---------0000---------0000---------0-0-0-0-|
                                                   . . . .
Guitar 2
D|---------------------------------------------------------|
A|---------------------------------------------------------|
F|---------------------------------------------------------|
C|-TP--TP--------TP--TP--------TP--TP-------TP--TP---------|
G|-5---8---------5---8---------7---10-------7---10-0-0-0-0-|
C|---------0000----------0000---------0000---------0-0-0-0-|
                                                   . . . .
Section 5
Both Guitars
D|------------------------------------------------------|
A|------------------------------------------------------|
F|-7s-10---------7s-10---------6s-9---------6s-9--------|
C|-x---x---------x---x---------x--x---------x--x--------|
G|-5s--8--0-0-0--5s--8--0-0-0--4s-7--0-0-0--4s-7--0-0-0-|
C|--------0-0-0---------0-0-0--------0-0-0--------0-0-0-|
          . . .         . . .        . . .        . . . 

Guitar 1
D|-----------------------------------------------------------|
A|-----------------------------------------------------------|
F|-10s-14--------10s-14---------12s-15---------12s-15--------|
C|--x---x---------x---x----------x---x----------x---x--------|
G|--8s-12--0-0-0--8s-12--0-0-0--10s-13--0-0-0--10s-13--0-0-0-|
C|---------0-0-0---------0-0-0----------0-0-0----------0-0-0-|
           . . .         . . .          . . .          . . . 

Guitar 2
D|--------------------------------------------------------|
A|--------------------------------------------------------|
F|-7s-10---------7s-10---------9s-12---------9s-12--------|
C|-x---x---------x---x---------x---x---------x---x--------|
G|-5s--8--0-0-0--5s--8--0-0-0--7s-10--0-0-0--7s-10--0-0-0-|
C|--------0-0-0---------0-0-0---------0-0-0---------0-0-0-|
          . . .         . . .         . . .         . . . 
Section 6
Both Guitars
D|----------------------------------------------------------------|
A|----------------------------------------------------------------|
F|----------------------------------------------------------------|
C|-----5----------------------------------------------------------|
G|-0-4-5--6-5-4*~----------------0-0--------------------------0-0-|
C|-0-4-5--6-5-----0000-2h3-0-4p3-0-0--0000-2h3-0000-2h3-0-4p3-0-0-|
   . .    . .     ....     .     . .  ....     ....     .     . .

D|-------------------------------------------------------------------------------|
A|-------------------------------------------------------------------------------|
F|-------------------------------------------------------------------8s7---5s6---|
C|-----5------4------------------------------------------------------8s7---5s6-4-|x2
G|-0-4-5--6-5-4------------------0-0--------------------------0-0--0-6s5-0-3s4-4-|
C|-0-4-5--6-5-4---0000-2h3-0-4p3-0-0--0000-2h3-0000-2h3-0-4p3-0-0--0-----0-----4-|
   . .    . .     ....     .     . .  ....     ....     .     . .  .     .

Section 7
Guitar 1
D|----------------------------------------------2h3p2-2-3-5-3-2---|
A|--------------------------------------------------------------4-|
F|----------------------3~----------------------------------------|
C|------------------1-1~------------------------------------------|x3
G|------2h3---4p3---1~-----------2h3---4p3-1-1--------------------|
C|-0000-2h3-0-4p3-0-1~------0000-2h3-0-4p3-1-1--------------------|
   ....     .               ....     .     . .

Guitar 2
D|--------------------------------------------------------2-------|
A|----------------------------------------------3h4p3-3-4---4-3---|
F|----------------------3~--------------------------------------3-|
C|------------------1-1~------------------------------------------|x3
G|------2h3---4p3---1~-----------2h3---4p3-1-1--------------------|
C|-0000-2h3-0-4p3-0-1~------0000-2h3-0-4p3-1-1--------------------|
   ....     .               ....     .     . .

Guitar 1
D|----------------------------------------------2h3p2-2-3/10~-|
A|------------------------------------------------------------|
F|----------------------3~------------------------------------|
C|------------------1-1~--------------------------------------|
G|------2h3---4p3---1~-----------2h3---4p3-1-1----------------|
C|-0000-2h3-0-4p3-0-1~------0000-2h3-0-4p3-1-1----------------|
   ....     .               ....     .     . .

Guitar 2
D|-----------------------------------------------------------|
A|----------------------------------------------3h4p3-3-4/7~-|
F|----------------------3~-----------------------------------|
C|------------------1-1~-------------------------------------|
G|------2h3---4p3---1~-----------2h3---4p3-1-1---------------|
C|-0000-2h3-0-4p3-0-1~------0000-2h3-0-4p3-1-1---------------|
   ....     .               ....     .     . .

Repeat Section 1 (x1)
But replace last little bit with...
Guitar 1 (muted)          Guitar 2
D|---------------------|  |------------------------|
A|-------<7>-------<5>-|  |------------------------|
F|-----<7>-------<5>---|  |------------------------|
C|---<7>-------<5>-----|  |-6\---------------------|
G|-<7>-------<5>-------|  |-3\-(slide-entire-neck)-|
C|---------------------|  |-3\-(or-upward-whammy?)-|

Section 8 (played staccato)
D|----------------------------------------------------------------------|
A|----------------------------------------------------------------------|
F|----------------------------------------------------------------------|
C|----------------------------------------------------------------------|(x2)
G|--------3-------4-3-------------------------3-------4-3---0-----------|(not including)
C|-0-3-4----4--0------4-0-3-9b10r9b10--0-3-4----4--0------4---0-6b7r6b7-|(first sample )

Section 9
D|---------------------------------------------------------------|
A|---------------------------------------------------------------|
F|---------------------------------------------------------------|
C|---------------------------------------------------------------|
G|---------3-----4-3-------------------3-----4-3-----------------|
C|-0-4-3-0---4-3-----4-0-3-5-0-0-4-3-0---4-3-----4-0-3-9b10r9b10-|

D|-------------------------------------------------------------|
A|-------------------------------------------------------------|
F|-------------------------------------------------------------|
C|-------------------------------------------------------------|
G|---------3-----4-3-------------------3-----4-3---0-----------|
C|-0-4-3-0---4-3-----4-0-3-5-0-0-4-3-0---4-3-----4---0-6b7r6b7-|

Repeat Section 8 (x1)
But Guitar 1 plays...
D|----------------------------------------------------------------------|
A|----------------------------------------------------------------------|
F|----------------------------------------------------------------------|
C|----------------------------------------------------------------------|(x2)
G|--------6-------7-6-------5b6r5b6--------6-------7-6------------------|
C|-0-6-7----7--0------7-0-6---------0-6-7----7--0------7-11-0-9b10r9b10-|

Repeat Section 9 (x1 SLOWER)
But 2nd time through, Guitar 1 plays
D|----------------------------------------------------------|
A|----------------------------------------------------------|
F|----------------------------------------------------------|
C|----------------------------------------------------------|
G|---------6-----7-6-------------------6-----7-6------------|
C|-0-7-6-0---7-6-----7-0-6-8-0-0-7-6-0---7-6-----7-11-0-10~-|

Section 10
D|------------------------------------------------------------------|
A|------------------------------------------------------------------|
F|------------------------------------------------------------------|
C|-----7-7-7-6-6-6-6-----5--------4-4-4-3-3-3-3-----4b----4b----4b--|
G|-0-0-7-7-7-6-6-6-6-0-0-4----0-0-4-4-4-3-3-3-3-5-5-5b--5-5b--5-5b--|
C|-0-0-7-7-7-6-6-6-6-0-0-5----0-0-4-4-4-3-3-3-3-0-0-0---0-0---0-0---|
   . .               . .      . .               . .     .     .

Repeat Section 10 (2x dropping the tempo greatly each time)

There is an iffy part here and there, but this a pretty fun song to play and I 
hope this tab helps you enjoy it too.
Please rate & comment.
Thanks,
millarso
Tap to rate this tab
# A B C D E F G H I J K L M N O P Q R S T U V W X Y Z