Song name
# A B C D E F G H I J K L M N O P Q R S T U V W X Y Z

Becoming The Archetype - Denouement tab

----------------------------------------------------------------------------
			     SONG NAME - Band Name
----------------------------------------------------------------------------
Tabbed by:MeTaLhEaD69+5
Email:fjfrisco@msn.com
b=bend up

  Intro repeat
e|----------14~-------------------------------------------------------------|
B|----12~-------------------------------------------------------------------|
G|-15~---15~----------------------------------------------------------------|
D|--------------------------------------------------------------------------|
A|--------------------------------------------------------------------------|
E|--------------------------------------------------------------------------|
   2nd guitar
e|-22-19-22-19-21b-18-------------------------------------------------------|
B|--------------------------------------------------------------------------|
G|--------------------------------------------------------------------------|
D|--------------------------------------------------------------------------|
A|--------------------------------------------------------------------------|
E|--------------------------------------------------------------------------|

e|---------------------------------------------------------------------------|
B|----10-12------------------------------------------------------------------|
G|-11-------9------9---------------------------------------------------------|
D|-------------------12-11-9-------------------------------------------------|
A|---------------------------------------------------------------------------|
E|---------------------------------------------------------------------------|
  3rd guitar rhy. dropB this is what u play over the riff above
(D5)7x (F5)6x (C5)6x (D5)7x
Tap to rate this tab
# A B C D E F G H I J K L M N O P Q R S T U V W X Y Z