Guitaretab - guitar tabs
Song name
# A B C D E F G H I J K L M N O P Q R S T U V W X Y Z

Becoming The Archetype - Nights Sorrow tab

Nights Sorrow

|-----------------12---------|-----------------10---------|-----------------9---------|
|-------------10------10-----|-------------10------10-----|-------------10-----10-----|
|----------9--------------9--|----------9--------------9--|----------9-------------9--|
|-------7--------------------|-------7--------------------|-------7-------------------|
|--0-0-----------------------|--0-0-----------------------|--0-0----------------------|
|----------------------------|----------------------------|---------------------------|

|-----------------8---------|--------------8--10--8------------------------------------|
|-------------10-----10-----|----------10------------10------------9h/12--12/15--15/17-|
|----------9-------------9--|-------9--------------------------9-----------------------|
|-------7-------------------|--0-0-----------------------------------------------------|
|--0-0----------------------|----------------------------------------------------------|
|---------------------------|-----------------------------0-0--------------------------|

|---12----------12----------10--8--8---------7--12--|
|-------13----------13------13--10-----10----10-----|
|-----------14----------14--14--9---------9--9------|
|-------------------------------0-------------------|
|---0-----------------------0----------------0------|
|---------------------------------------------------|
Am 
|--------------0--------------0---------------------|
|-----------1------1----0/1------1--0/1-----1--0/1--|
|--------2------------------------------------------|
|-----2----------------------------------2----------|
|--0------------------------------------------------|
|---------------------------------------------------|
Am 
|--------------0----------0---------------------|
|-----------1-----1--0/1-----1--0/1-----1--0/1--|
|--------2--------------------------------------|
|-----2------------------------------2----------|
|-----------------------------------------------|
|--3--------------------------------------------|

|--------------------------------------|----------------0-----|--0--|
|--------------3---1--1----------------|-------------0-----0--|--0--|
|---------2---2---2------2-------------|----------2-----------|--1--|
|------0-----0---0----------0----------|-------3--------------|--2--|
|----0-------------------------3-------|----3-----------------|--2--|
|--2-------------2----------------2----|-1--------------------|--0--|
      (Rake)^ 
E 			Am 			Dm 
|--------------0-----------|-----------1--|--5---3---1---0--|
|-----------1-----3--1--0--|--------3-----|--6---5---3---1--|
|--------2-----------------|-----2--------|-----------------|
|-----2--------------------|--0-----------|-----------------|
|--0-----------------------|--------------|-----------------|
|--------------------------|--------------|-----------------|
E 
|--------------0---------|--0---------0---------|-----------|-------------------------|
|-----------0-----3-1-0--|-----3-1-0-----3-1-0--|--3-1-0----|--1-0-------0------------|
|--------1---------------|----------------------|--------2--|-------2-1-----2-1-------|
|-----2------------------|--2-------------------|-----------|--------------------3-2--|
|------------------------|----------------------|-----------|-------------------------|
|--0---------------------|----------------------|-----------|-------------------------|
 (These are all artificial harmonics)
(Harmonics) 			    Am 						    C 
|--12--------5--|-----------0-----------------0--------|--------------------------------------|
|-----12--5-----|--------1-----1-----------1-----1-----|-----------1-----------------1--------|
|---------------|-----2-----------2-----2-----------2--|--------0-----0-----------0-----0-----|
|---------------|--2-----------------2-----------------|-----2-----------2-----2-----------2--|
|---------------|--------------------------------------|--3-----------------3-----------------|
|---------------|--------------------------------------|--------------------------------------|
Em 				   G 
|--------------------------------------|--------------12--|
|-----------1-----------------1--------|--------------12--|
|--------0-----0-----------0-----0-----|--------------12--|
|-----2-----------2-----2-----------2--|--------0---------|
|--2-----------------2-----------------|-----2-----2------|
|--------------------------------------|--3---------------|
   Am 
--------------------------------------------------|
-------------------1------------------------0-----|
-------------0--------0---------------1--------1--|
-------2--------2---------------2--------2--------|
--2-2-----2----------------2-2-----2--------------|
--------------------------------------------------|





[ Tab from: http://www.guitaretab.com/b/becoming-the-archetype/74014.html ]
  C 
|------------------------------------------------|
|-------------------1----------------------1-----|
|-------------0--------0-------------0--------0--|
|-------3--------2-------------3--------2--------|
|--3-3-----3--------------3-3-----3--------------|
|------------------------------------------------|
Em G 
|-------------------------|-------------------------|--------------12--|
|-------------------1-----|-------------------1-----|--------------12--|
|-------------0--------0--|-------------0--------0--|--------------12--|
|-------2--------2--------|-------2--------2--------|--------0---------|
|--2-2-----2--------------|--2-2-----2--------------|-----2-----2------|
|-------------------------|-------------------------|--3---------------|
That's the end of the whole harmonics thing. 
    Am 
|--------------0-0-----------------------0-0--------1-0--|
|-----------1-------1-----------------1-------1-----1-0--|
|--------2-------------2-----------2-------------2-------|
|-----2-------------------2-----2------------------------|
|--0-------------------------0---------------------------|
|--------------------------------------------------------|

|--------------0-0-----------------------0-0--------1-0--|
|-----------1-------1-----------------1-------1-----1-0--|
|--------2-------------2-----------2-------------2-------|
|-----2-------------------2-----2------------------------|
|--0-------------------------0---------------------------|
|--------------------------------------------------------|

|--5-3--0-0-------0-0------1-0--|--0-0--------0-0---------5--3--|
|--6-5------1---------1----1-0--|-------1----------1------6-----|
|-------------2---------2-------|----------2----------2---7-----|
|-------------------------------|-------------------------0-----|
|-------------------------------|-------------------------------|
|-------------------------------|-------------------------------|

|--------------0-0-----------------------0-0--------1-0--|
|-----------1-------1-----------------1-------1-----1-0--|
|--------2-------------2-----------2-------------2-------|
|-----2-------------------2-----2------------------------|
|--0-------------------------0---------------------------|
|--------------------------------------------------------|

|--5-3--0-0-------0-0------1-0--|--0-0--------0-0---------5--3--|
|--6-5------1---------1----1-0--|-------1----------1------6-----|
|-------------2---------2-------|----------2----------2---7-----|
|-------------------------------|-------------------------0-----|
|-------------------------------|-------------------------------|
|-------------------------------|-------------------------------|
Dm 				Dm 			 F 
|--5--5------5--5------7--5--|--5------5--5------7--5--|--1--1------1--1------0--1--|
|--6----6---------6----6-----|----6---------6----6-----|-------1---------1----------|
|--7------7---------7--7-----|------7---------7--7-----|---------2---------2--------|
|--0-------------------------|-------------------------|----------------------------|
|----------------------------|-------------------------|----------------------------|
|----------------------------|-------------------------|----------------------------|
     F 
|--1--1------1--1------0--1--|
|-------1---------1----------|
|---------2---------2--------|
|----------------------------|
|----------------------------|
|--0---------0---------------|
Iím Not sure how to do this part, but this is what I got. Thereís some kinda strumming on top of this.
|-------------------|------|
|-------------------|--12--|
|---1/4--4/7--7/10--|--10--|
|-------------------|--12--|
|---2/5--5/8--8/11--|--11--|
|-------------------|--0---|

|-----------------12---------|-----------------10---------|-----------------9---------|
|-------------10------10-----|-------------10------10-----|-------------10-----10-----|
|----------9--------------9--|----------9--------------9--|----------9-------------9--|
|-------7--------------------|-------7--------------------|-------7-------------------|
|--0-0-----------------------|--0-0-----------------------|--0-0----------------------|
|----------------------------|----------------------------|---------------------------|

|-----------------8---------|--------------8--10--8------------------------------------|
|-------------10-----10-----|----------10------------10------------9h/12--12/15--15/17-|
|----------9-------------9--|-------9--------------------------9-----------------------|
|-------7-------------------|--0-0-----------------------------------------------------|
|--0-0----------------------|----------------------------------------------------------|
|---------------------------|-----------------------------0-0--------------------------|
  
Am 
|--5--12------|
|--5------10--|
|--5----------|
|--7----------|
|--7----------|
|--5----------|
Related for Nights Sorrow tab