Song name
# A B C D E F G H I J K L M N O P Q R S T U V W X Y Z

Becoming The Archetype - Beyond Adaptation tab

Band: Becoming The Archetype
Song: Beyond Adaptation
Tabbed By: Jordan Palmer

this is like my second tabb. lol BTA is a great band and this song is the shizzay.

:Intro:

this goes really fast and i'm not sure if its 100% correct but its pretty close.

Guitar 1:
D|-------------------------------------------------|
A|-------------------------------------------------|
F|-------------------------------------------------| Repeat Whats in () x2
C|-7-(000-12-12-13-12-10-8--875-875-10-8-7-10-8-7)-|
G|-5-----------------------------------------------|
C|-------------------------------------------------|

While Guitar 1 Plays The Riff Above Guitar 2 Plays This
D|------------------------------|
A|------------------------------|
F|------------------------------|
C|-0-----0-1~--0-0-0-0----0--0~-|
G|-0-----0-1~--0-0-0-0----0--0~-|
C|-0-----0-1~--0-0-0-0----0--0~-|


Guitar 1:
D|------------------------------|
A|------------------------------|
F|------------------------------|
C|-0-----0-1~--0-0-0-0----0--5b-|
G|-0-----0-1~--0-0-0-0----0-----|
C|-0-----0-1~--0-0-0-0----0-----|

Guitar 2:
D|------------------------------|
A|------------------------------|
F|------------------------------|
C|-0-----0-1~--0-0-0-0----0--0--|
G|-0-----0-1~--0-0-0-0----0--0--|
C|-0-----0-1~--0-0-0-0----0--0--|

Guitar 1 & 2:
D|-------------------------------------------------|
A|-------------------------------------------------|
F|-------------------------------------------------| Repeat Whats in () x4
C|-7-(000-12-12-13-12-10-8--875-875-10-8-7-10-8-7)-|
G|-5-----------------------------------------------|
C|-------------------------------------------------|

:Verse:

Guitar 1 & 2:
D|--------------------------|
A|--------------------------|
F|--------------------------|
C|-0-----2-----3------3/5\3-| x4
G|-0-----2-----3------3/5\3-|
C|-0-000-2-000-3-0000-3/5\3-|


Guitar 1 & 2:
D|---------------------------|
A|---------------------------|
F|---------------------------|
C|-0-----5-----7------8/10\8-| x4
G|-0-----5-----7------8/10\8-|
C|-0-000-5-000-7-0000-8/10\8-|

Guitar 1 & 2:
D|-------------------------------------------------|
A|-------------------------------------------------|
F|-------------------------------------------------| x4
C|----000-12-12-13-12-10-8--875-875-10-8-7-10-8-7--|
G|-------------------------------------------------|
C|-------------------------------------------------|

Guitar 1 & 2:
D|--------------------------------|
A|--------------------------------|
F|--------------------------------|
C|-0-----0-1~--0-0-0-0----1--7\0--|
G|-0-----0-1~--0-0-0-0----1--7\0--|
C|-0-----0-1~--0-0-0-0----1--7\0--|


Guitar 1 & 2:
D|--------------------------------------------------|
A|--------------------------------------------------|
F|--------------------------------------------------|
C|-33333333333333334444444477777777-0-2-0-2-0-2-0-2-| x4
G|-33333333333333334444444477777777-0-2-0-2-0-2-0-2-|
C|-33333333333333334444444477777777-0-2-0-2-0-2-0-2-|


On the fourth time the riff above ends with

Guitar 1 & 2:
D|---------------------------------|
A|---------------------------------|
F|---------------------------------|
C|-0-0-2v-0-0-2v---------------2v--|
G|-0-0----0-0------3-2-1-0-1-0-----|
C|-0-0----0-0------3-2-1-0-1-0-----|


Guitar 1 & 2:
D|------------------|
A|------------------|
F|------------------|
C|------------------|
G|--7-6-4-6-4-3-4-3-|
C|--7-6-4-6-4-3-4-3-|

Guitar 1 & 2:
D|----------------------|
A|----------------------|
F|----------------------|
C|------------------2-4-|
G|--7-6-4-6-4-3-4-3-3-5-|
C|--7-6-4-6-4-3-4-3-----|


these two riffs repeat for awhile and inbetween are some funky little scale thingys 
i'm too lazy to figure out lol =]

----------------------------------

then after the riffs above you interchange between the next two riffs until the song ends

Guitar 1 & 2:
D|--------------------------|
A|--------------------------|
F|--------------------------|
C|-0-----2-----3------3/5\3-|
G|-0-----2-----3------3/5\3-|
C|-0-000-2-000-3-0000-3/5\3-|


Guitar 1 & 2:
D|-------------------------------------------------|
A|-------------------------------------------------|
F|-------------------------------------------------|
C|----000-12-12-13-12-10-8--875-875-10-8-7-10-8-7--|
G|-------------------------------------------------|
C|-------------------------------------------------|

good luck! feel free to give corrections cause i know the song isnt 100% correct. but 
get the basic outline of it.
Tap to rate this tab
 
# A B C D E F G H I J K L M N O P Q R S T U V W X Y Z