Guitaretab - guitar tabs
Song name
# A B C D E F G H I J K L M N O P Q R S T U V W X Y Z

Becoming The Archetype - Epoch Of War tab

I'm surprised only two guys have tabbed this song so far, and they did a pretty quick 
of it at that. So yeah, here it is. I haven't tabbed the solo, sorry =[ (Who do you think 
am, Yngwe Malmstene? =D) So whatever, enjoy the song...this is as good as it gets...

Epoch of War
Becoming The Archetype
Transcribed by Michael Griswold

Tuning: C-A-D-G-B-E

     Settings

Clean: Clean
Dist.: Distortion (10)

        Key

Hammer:   h
Pull:     p
Slide:    /
Vibrato:  ~
Bend:     b
Fastpick: //


 Intro x2 (0-0:25)

        |-------------------------------------------|
        |-------------------------------------------|
Guitar 1|-------------------------------------------|
(clean) |-------------------------------------------|
        |--8-~-10-11-8-~-10-11/13-~-11-10-11-10-7-~-|
        |-------------------------------------------|

        |---------------------------------------|
        |---------------------------------------|
Guitar 2|---------------------------------------|
(clean) |--6-~-8-10-6-~-8-10/11-~-10-8-10-8-5-~-|
        |---------------------------------------|
        |---------------------------------------|


        |----------------------------------------------|
        |----------------------------------------------|
Guitar 1|----------------------------------------------|
        |-------------------------------11-10----------|
        |--8-~-10-11-8-~-10-11/13-10-11-------13-11-10-|
        |----------------------------------------------|

        |-----------------------------------------|
        |-----------------------------------------|
Guitar 2|----------------------------10-9---------|
        |--6-~-8-10-6-~-8-10/11-8-10------11-10-8-|
        |-----------------------------------------|
        |-----------------------------------------|


 Pre Verse x2 (0:25-0:45)

        |-------------------------------------------|
        |-------------------------------------------|
Guitar 1|-------------------------------------------|
(Dist.) |-------------------------------------------|
        |--8-~-10-11-8-~-10-11/13-~-11-10-11-10-7-~-|
        |-------------------------------------------|

        |----------------------------------------|
        |----------------------------------------|
Guitar 2|----------------------------------------|
(Dist.) |----------------------------------------|
        |--3---------3---------8----------6------|
        |--5---------5---------10---------8------|


        |----------------------------------------------|
        |----------------------------------------------|
Guitar 1|----------------------------------------------|
        |-------------------------------11-10----------|
        |--8-~-10-11-8-~-10-11/13-10-11-------13-11-10-|
        |----------------------------------------------|

        |---------------------------------------|
        |---------------------------------------|
Guitar 2|---------------------------------------|
        |---------------------------------------|
        |--3---------3---------4---------1------|
        |--5---------5---------1---------3------|


 Pre Verse 2 x2 (0:45-1:06)

        |---------------------------------------------|
        |---------------------------------------------|
Guitar 1|--10-~-12-13-10-~-12-13/15-~-13-12-13-12-9-~-|
        |---------------------------------------------|
        |---------------------------------------------|
        |---------------------------------------------|

        |------------------------------------|
        |------------------------------------|
Guitar 2|------------------------------------|
        |------------------------------------|
        |------------------------------------|
        |--5-5-5-7b8-5-5-5-5-5p1-1-1-4-4-4-4-|


        |------------------------------------------------|
        |---------------------------------14-13----------|
Guitar 1|--10-~-12-13-10-~-12-13/15-12-13-------15-13-12-|
        |------------------------------------------------|
        |------------------------------------------------|
        |------------------------------------------------|

        |------------------------------------|
        |------------------------------------|
Guitar 2|------------------------------------|
        |------------------------------------|
        |------------------------------------|
        |--5-5-5-7b8-5-5-5-5-5p1-1-1-4-4-4-4-|
[ Tab from: http://www.guitaretab.com/b/becoming-the-archetype/92830.html ]
 Verse x1.5 (1:06-1:45)

        |------------------------------------------|
        |------------------------------------------|
Guitar 1|------------------------------------------|
Guitar 2|------------------------------------------|
        |------------------------------------------|
        |--1-1-1111-1-1-1111-1-3p1-1-3p1-3h4-------|

        |------------------------------------------|
        |------------------------------------------|
Guitar 1|------------------------------------------|
Guitar 2|------------------------------------------|
        |------------------------------------------|
        |--1-1-1111-1-1-1111-1-4p1-1-4p3-0---------|

Play 4x, then:

        |------------------------------------------|
        |------------------------------------------|
Guitar 1|------------------------------------------|
Guitar 2|------------------------------------------|
        |------------------------------------------|
        |--0-//----//----//----12\-//----//--------|

        |------------------------------------------|
        |------------------------------------------|
Guitar 1|------------------------------------------|
Guitar 2|------------------------------------------|
        |------------------------------------------|
        |--0-//----//----//----3-//----1-//--------|


 Pre Chorus x1 (1:45-1:48)

        |--------------------------------|
        |--------------------------------|
Guitar 1|--------------------------------|
Guitar 2|-------------3------3-5---6-5---|
        |--3-4-6-4--6---6--------------6-|
        |--------------------------------|

 Chorus x2 (1:48-2:09)

Guitar 1 plays 8x. Guitar 2 comes in after 4:

Guitar 3 Plays 2x

        |------2---------2-----2-----------|
        |----5-----2---5-----5-----5-------|
Guitar 1|------------------------------4-~-|
        |--3-----3---3-----3-----3---3-----|
        |----------------------------------|
        |----------------------------------|

        |----3-4-------3-4---3-4---3-------|
        |----------1-----------------1-4-~-|
Guitar 2|----------------------------------|
        |--3-----3---3-----3-----3---------|
        |----------------------------------|
        |----------------------------------|

        |--------------------------------------------|
        |--------------------------------------------|
Guitar 3|--------------------------------------------|
        |--------------------------------------------|
        |--------------------------------------------|
        |--5-5--------------5h8-9---5-5--------5h9-8-|

        |--------------------------------------------|
        |--------------------------------------------|
Guitar 3|--------------------------------------------|
(conít) |--------------------------------------------|
        |--------------------------------------------|
        |--1-1--------------1h3-5---3-3--------3h9-8-|

 Solo (2:09-2:31)

Guitar 1 (Insert kick-awsome shred-tastic guitar solo)

Guitar 2 (continue rhythm of Guitar 3 in Chorus)

 Junk x2 (2:31-2:52)

        |-----------------------------------------------|
        |-----------------------------------------------|
Guitar 1|--10-//-8-//-10-//-12-//-10-//-8-//-13-//-12//-|
        |-----------------------------------------------|
        |-----------------------------------------------|
        |-----------------------------------------------|

        |-----------------------------------------------------|
        |-----------------------------------------------------|
Guitar 2|-----------------------------------------------------|
 (chop) |-----------------------------------------------------|
        |-----------------------------------------------------|
        |--5--------------5--------------1------------3-------|

 Outro x8 (2:52-3:18)

        |--------------------------------8--------|
        |----------8-9-8-------------------11-9-8-|
Guitar 1|--10-8-10-------10-8-10-8-10-12----------|
        |-----------------------------------------|
        |-----------------------------------------|
        |-----------------------------------------|

        |---------------------------------|
        |---------------------------------|
Guitar 2|---------------------------------|
        |---------------------------------|
        |---------------------------------|
        |--5--5---5-5-5----5-5-5--5-5-5---|


Keep it real...

 Peace,

  Michael G (a.k.a. Sheik of Shred)
Related for Epoch Of War tab