Guitaretab - guitar tabs
Song name
# A B C D E F G H I J K L M N O P Q R S T U V W X Y Z

Becoming The Archetype - Into Oblivion tab

Into Oblivion
  by Becoming the Archetype

From their first album "Terminate Damnation"
Copyright  2005 Solid State Records

Tabbed by Tom Arthur

Drop C Tuning: C-G-C-F-A-D

O.k., I know this is far from perfect, but I honestly think it
turned out pretty well. I don't have both guitar parts tabbed, so
I tried to pick whichever one you can hear the best. I didn't get
the tapping riff at the end yet, but I'll try to get that figured
out. And I definitely don't have the solo. If anyone thinks they
can help out with anything, PLEASE e-mail me (vikefan011@hotmail.com)
This is a great song and I want to try to get it finished.

Big thanks goes out to "Phillip!" from the BTA forums. I "borrowed"
most of the bridge from him. Thanks bud! (hope you don't mind)

So, this was a really long-winded introduction. Anyway, ENJOY!

  Intro (with tremelo picking)
D|----------------------------------------------------------------|
A|----------------------------------------------------------------|
F|-----------9-10-12-10-9---------------------------7-10-8-7-8-7--|
C|--0-7-8-10--------------10-8-7--------0-0-5-8-6-7---------------|
G|-------------------------------10-8-7---------------------------|
C|----------------------------------------------------------------|

D|----------------------------------------------------------------|
A|----------------------------------------------------------------|
F|----------------------------------------------------------------|
C|--8-6-5---------------------------------------------------------|
G|--------8-6-----------------------------------------------------|
C|----------------------------------------------------------------|


  Riff 1a  x2
D|----------------------------------------------------------------|
A|----------------------------------------------------------------|
F|----7-7---------------6-6-6-------------------------------------|
C|--0-7-7-0-7-7-0-8-8-0-6-6-6---------5-7-8-------7-8-10----------|
G|--0-5-5-0-7-7-0-8-8-0-4-4-4---5-7-8-------5-7-8-----------------|
C|--0-----0-7-7-0-8-8-0-------------------------------------------|
    .     .     .     .
D|----------------------------------------------------------------|
A|----------------------------------------------------------------|
F|----7-7---------------------------------------------------------|
C|--0-7-7-0-7-7-0-8-8---------5-7-8-------7-8-10------------------|
G|--0-5-5-0-7-7-0-8-8---5-7-8-------5-7-8-------------------------|
C|--0-----0-7-7-0-8-8---------------------------------------------|
    .     .     .
                                   Riff 2a   x4 
D|------------------------------||-------------------------------||
A|------------------------------||o-----------------------------o||
F|--------------------------5---||--------------------------5----||
C|--0~--------------------3-5---||----6--6-0--0-1--1-5--5-3-3----||
G|--0~--(some bass here)--3-3---||o---6--6-0--0-1--1-5--5-3-3---o||
C|--0~--------------------3-----||----6--6-0--0-1--1-5--5-3------||
			                 .    .    .    .
  Riff 2b
D|----------------------------------------------------------------|
A|----------------------------------------------------------------|
F|---------------------55-----------------------------------------|
C|--666-000-111-555-33-55-----------------------------------------|
G|--666-000-111-555-33-33-----------------------------------------|
C|--666-000-111-555-33--------------------------------------------|
    ... ... ... ... .. ..
  Riff 2a   x4

  Bridge 1  x4   (So far......away.....)
D|----------------------------------------------------------------|
A|----------------------------------------------------------------|
F|----------------------------------------------------------------|
C|--3-2--3-5--5-6-------------------------------------------------|
G|--3-2--3-5--5-6-------------------------------------------------|
C|--3-2--3-5--5-6-------------------------------------------------|

					x4
D|----------------------------||----------------------------------||
A|----------------------------||o--------------------------------o||
F|----------------------5-7-8-||--------------------------5-7-8---||
C|--8-7-6---------5-6-8-------||---000-8-7-6--------5-6-8---------||
G|--8-7-6---5-6-8-------------||o--000-8-7-6--5-6-8--------------o||
C|--8-7-6---------------------||---000-8-7-6----------------------||

D|----------------------------------------------------------------|
A|----------------------------------------------------------------|
F|----------------------------------------------------------------|
C|--000-8-7-6--000-000--000-8-7-6---------------------------------|
G|--000-8-7-6--000-000--000-8-7-6----*8---------------------------|
C|--000-8-7-6--000-000--000-8-7-6--0------------------------------|

D|----------------------------------------------------------------|
A|----------------------------------------------------------------|
F|----------------------------------------------------------------|
C|--000-8-7-6--000-000--000-8-7-6--000-000------------------------|
G|--000-8-7-6--000-000--000-8-7-6--000-000------------------------|
C|--000-8-7-6--000-000--000-8-7-6--000-000------------------------|

  Acoustic guitar from 1:35 to 1:50

D|----------------------------------------------------------------|
A|----------------------------------------------------------------|
F|----------------------------------------------------------------|
C|--12~--10.----8~--7.--------------------------------------------|
G|--12~--10.----8~--7.--------------------------------------------|
C|--12~--10.----8~--7.--------------------------------------------|
[ Tab from: http://www.guitaretab.com/b/becoming-the-archetype/97803.html ]
  Bridge	At 2:04
D|----------------------------------------------------------------|
A|----------8-------------------------8--6--5h6--------------6----|
F|--/7--10-----10--9h10p9-7h9p7--5-5------------5--5h7p5-3-3------|
C|----------------------------------------------------------------|
G|----------------------------------------------------------------|
C|----------------------------------------------------------------|

D|--------------------------------------------------------13------|
A|--5-6-5h6p5-3-5/6-6/8-8--5h6-5--6--/10--10h11-10--10-10----10---|
F|----------------------------------------------------------------|
C|----------------------------------------------------------------|
G|----------------------------------------------------------------|
C|----------------------------------------------------------------|

D|--12----12p10------------------------9-9-10-10-12-12-10-10-9\---|
A|-----10-------10--10h11p10--8----/10----------------------------|
F|------------------------------10--------------------------------|
C|----------------------------------------------------------------|
G|----------------------------------------------------------------|
C|----------------------------------------------------------------|

  (Guitar 2)
D|----------------------------------------------------------------|
A|----------------------------------------------------------------|
F|----------------------------------------------------------------|
C|---------------------------------------------------7-7-7-7-7.---|
G|---------------------------------------------------7-7-7-7-7.---|
C|---------------------------------------------------7-7-7-7-7.---|

  Riff 3   x4                  |-----|--> listen for the rythm
D|----------------------------------------------------------------|
A|----------------------------------------------------------------|
F|-----------------------5-----3--2--3---6-6/7-7/9-9\7-7\6--------|
C|--0--3--5--3--2h3-2p0--5-----3--2--3---6-6/7-7/9-9\7-7\6--------|
G|--0--3--5--3--2h3-2p0--3-----1--0--1---4-4/5-5/7-7\5-5\4--------|
C|--0--3--5--3--2h3-2p0-------------------------------------------|

  Intro (whithout tremelo picking)  x4

  Solo - won't even bother

  Guitar 2 during solo:

    Riff 2a  x9

    Riff 2b  x4

    Riff 2a  x4

    Riff 2b  x4

D|----------------------------------------------------------------|
A|----------------------------------------------------------------|
F|----------------------------------------------------------------|
C|--00---------00---------00------00---------00-------------------|
G|--00-7-8-10--00-7-8-10--00-7-8--00-7-8-10--00-8-11-7-10---------|
C|--00---------00---------00------00---------00-------------------|
                                                ^tremelo^
D|----------------------------------------------------------------|
A|----------------------------------------------------------------|
F|----------------------------------------------------------------|
C|--00---------00---------00------00---------00-------------------|
G|--00-7-8-10--00-7-8-10--00-7-8--00-7-8-10--00---/13\------------|
C|--00---------00---------00------00---------00-------------------|

D||----------------------------------------------------------------||
A||0--------------------------------------------------------------o||
F||----------------------------------------------------------------||
C||---000---------000---------000------000---------000-------------||
G||0--000-7-8-10--000-7-8-10--000-7-8--000-7-8-10--000-8-11-7-10--o||
C||---000---------000---------000------000---------000-------------||
                                                       ^tremelo^
  Riff 5   x2
D|----------------------------------------------------------------|
A|----------------------------------------------------------------|
F|----------------------------------------------------------------|
C|--00---00---0-0-0--00--00---------------------------------------|
G|--00---00---0-0-0--00--00-8-11-7-10-----------------------------|
C|--00---00---0-0-0--00--00---------------------------------------|
                            ^tremelo^
  Tapping Riff
D|-------------------------------------?--------------------------|
A|-------------------------------------?--------------------------|
F|--10t2-(x16)--9t1-(x16)--10t3-(x16)--?--------------------------|
C|-------------------------------------?--------------------------|
G|-------------------------------------?--------------------------|
C|-------------------------------------?--------------------------|

D|----------------------------------------------------------------|
A|--------------------7-8-10--------------------------------------|
F|--------------5-7-8---------------------------------------------|
C|--------5-6-8---------------------------------------------------|
G|--5-6-8---------------------------------------------------------|
C|----------------------------------------------------------------|

  Riff 1b   x4
D|----------------------------------------------------------------|
A|----------------------------------------------------------------|
F|----7-7---------------------------------------------------------|
C|--0-7-7-0-7-7-0-8-8------5-7-8-------7-8-10---------------------|
G|--0-5-5-0-7-7-0-8-8-5-7-8-------5-7-8---------------------------|
C|--0-----0-7-7-0-8-8---------------------------------------------|

  End!
D|----------------------------------------------------------------|
A|----------------------------------------------------------------|
F|----7-7---------------------------------------------------------|
C|--0-7-7-0-7-7-0-8-8---8\----------------------------------------|
G|--0-5-5-0-7-7-0-8-8---8\----------------------------------------|
C|--0-----0-7-7-0-8-8---8\----------------------------------------|
Related for Into Oblivion tab