Song name
# A B C D E F G H I J K L M N O P Q R S T U V W X Y Z

Bed On Bricks - Humanarium tab

this is my first tab and im tabbing a song that hasnt been tabbed before. if you know
on bricks, respect to you. this song is one of their best... if i made a mistake comment,
email me at chris@hot.wax.co.za

www.bedonbricks.co.za

normal tuning eBGDAE starting with treble e

riff 1: INTRO/VERSE
-----------------------------------------------------------|
-----------------------------------------------------------|
----------------------6---6--------------------------------|
----8--6--------------8---8--------------------------------|
----------8--7--6------------------------------------------|
-6-----------------6----6----------------------------------| x3

------------------9----------9--8--------------------------|
-------------4/6-------4/6---------------------------------|
-----------------------------------------------------------|
----8--6---------------------------------------------------|
----------8------------------------------------------------|
-6---------------------------------------------------------| x1

the intro is played as the verse, but there is one variation: after the first time you 
1 the first time instead of playing it again you play

-----------------------------------------------------------|
-----------------------------------------------------------|
-----------------------10--8---6---------------------------|
----8--6---------------11--10--8---------------------------|
----------8--7--6------------------------------------------|
-6-----------------(6)-------------------------------------| x1

and then the part where he sings "...like being in a large....humanarium"

-----------------------------------------------------------|
-----------------------------------------------------------|
--9--------8-----------------------------------------------|
--11-x16---10-x9-------------------------------------------|
-----------------------------------------------------------|
-----------------------------------------------------------| accent on the last 10/8.
the same with the large nigerian part.

riff 2: CHORUS

-----------------------------------------------------------|
-----------------------------------------------------------|
--9---9----8---8----6--6---10--10--------------------------|
--11--11---10--10---8--8---11--11--------------------------|
-----------------------------------------------------------|
-----------------------------------------------------------| x3 start it a 3rd time but
after the 2nd 10/8 and play

-------------------------------------------------------------|
-------------------------------------------------------------|
--8--8--8---10-10-10--8--8--8---6-6-6------------------------|
--10-10-10--11-11-11--10-10-10--8-8-8------------------------|
-------------------------------------------------------------|
-------------------------------------------------------------| x3
[--------------------PALM MUTED------------------------------|

-----------------------------------------------------------|
-------------------------14----------14-13-----------------|
--8--8--8---10-10--8/10--------8/10------------------------|
--10-10-10--11-11------------------------------------------|
-----------------------------------------------------------|
-----------------------------------------------------------| x1

i havent figured out the double-stops for the part where he sings "special, special
but the basic notes are

-----------------------------------------------------------|
-----------------------------------------------------------|
--6-6-6-6-6-6--4-4-4-4-4-4--6-6-6-6-6-6--4-4-4-4-4-4-------|
-----------------------------------------------------------|
-----------------------------------------------------------|
-----------------------------------------------------------|

he could be playing the notes with a lot of muted strings to make it sound better. the
bassline for the verse is

------------------6----6-----------------------------------|
-----8-6------------------------8-6---------------6-7-8----|
----------8-7-6----------------------8-7-6-----8-----------|
--6--------------6----6-------6--------------6-------------|

chorus

-----------------------------------------------------------|
-----------------------------------------------------------|
--9--9----8--8---------------------------------------------|
------------------6--6----9--9-----------------------------|

thats my tab, rate it, comment, email me, whatever, enjoy playing this song
Tap to rate this tab
# A B C D E F G H I J K L M N O P Q R S T U V W X Y Z