Bedhead - Burned Out tab

Bedhead - Burned Out Intro Tab by Eric Zillinger

Repeat for first minute of the song



e||------------------------------------------------------------------|
B||------------------------------------------------------------------|
G||------------------------------------------------------------------|
D||------------------------------------------------------------------|
A||-------7----7-----------7----7---------7-----------7---------7----|
E||--5--------------5----------------5-----------0---------0---------|



-------------------------------------------------------------------|
-------------------------------------------------------------------|
-------------------------------------------------------------------|
--------6----7-----------7----7---------7------7---------7---------|
------------------5----------------5----------------5--------------|
--0-0---------------------------------------------------------5----|



------------------|
------------------|
------------------|
------------------|
--7---------7-----|
-------5----------|
Tap to rate this tab
 
# A B C D E F G H I J K L M N O P Q R S T U V W X Y Z