Song name
# A B C D E F G H I J K L M N O P Q R S T U V W X Y Z

Bedlight For Blue Eyes - Jumper tab

Tabbed by:Elizabeth
Email:efalerofon2000@hotmail.com

Tuning:Standard

e|-----0------0------0------0------0------0--------3------3-------3----------|
B|-------1------1-------------1------1---------------0------0----------------|
G|----------2------2------------0------0---------------0-------0-------------|
D|--3------------------------------------------------------------------------|
A|-----------------------3---------------------------------------------------|
E|----------------------------------------------3----------------------------|


e|----3------3------3--------------------------------------------------------|
B|------0------0-------------------------------------------------------------|
G|--------0------0-----------------------------------------------------------|
D|---------------------------------------------------------------------------|
A|---------------------------------------------------------------------------|
E|-3-------------------------------------------------------------------------|
Tap to rate this tab
# A B C D E F G H I J K L M N O P Q R S T U V W X Y Z