Song name
# A B C D E F G H I J K L M N O P Q R S T U V W X Y Z

Bedlight For Blue Eyes - Walk With Me tab

walk with me solo

e-----------------------------------------|
b-----------------------------------------|
g---7---9---11--14------------------------| 2x
d---X---X---X---X-------------------------|
a---5---7---9---12------------------------|
e-----------------------------------------|


e---------------------------------------------------------------|
b-----10----10--------------------------------------------------|
g--9b----9b----9~--9--------------------------------------------|
d--------------------12-11-9-7b-7-----7----9b-9p7---7--7-9-12---|
a---------------------------------5h7---7---------9-------------|
e---------------------------------------------------------------|

e-------------------------------------------------|
b-------------------12b-10~------10-12-10----10---|
g------------9-11-9-12b-----9-11----------11------|
d--11------9--------------------------------------|
a-----9-12----------------------------------------|
e-------------------------------------------------|


e-----------------------------------------|
b-----10-----12-----10-----12-12-10-9-11--|
g---9------9------9------9----------------|
d-9------9------9------9------------------|
a-----------------------------------------|
e-----------------------------------------|

e-----------------------------------------------|
b--14-14-12-12----------------------------------|
g--------------14-14-12-14----9---9-11-11-14----|
d---------------------------9---9---------------|
a-----------------------------------------------|
e-----------------------------------------------|

e-----------------------------------------------|
b--14-14-12-12----------------------------------|
g--------------14-14-12-14----9---9-11-11-14----|
d---------------------------9---9---------------|
a-----------------------------------------------|
e-----------------------------------------------|

e-----------------------12-14-12-14-15-17-17b-17~----|
b-----------12-14-12-14------------------------------|
g--14-12-14------------------------------------------|
d----------------------------------------------------|
a----------------------------------------------------|
e----------------------------------------------------|
Tap to rate this tab
# A B C D E F G H I J K L M N O P Q R S T U V W X Y Z