Song name
# A B C D E F G H I J K L M N O P Q R S T U V W X Y Z

Bedlight For Blue Eyes - Walk With Me tab

Hey, this is a really good song. I am going to take a try at tabbing the whole thing, 
the solo. I can't promise 100% but I'll try my best. PLEASE RATE AND COMMENT!

Intro
e|---------------------|
B|---------------------| Just repeat as needed, the strumming is not exact.
G|---66666---77777-----| But it's pretty easy to figure out.
D|---77777---77777-----|
A|---77777---55555-----|
E|---55555-------------|

Pre-chorus
(my mouth forfeits my words)
e|----------------------------|
B|----------------------------|
G|---4444--7777---------------|
D|---4444--7777--7777--2222---|
A|---2222--5555--7777--2222---|
E|---------------5555--0000---|

(dedication song to her)
e|----------------------------|
B|----------------------------|
G|--4444---77777777-----------|
D|--4444---77777777---22222---|
A|--2222---55555555---22222---|
E|--------------------00000---|

Chorus
(will you walk with me....)
e|---------------------------|
B|---------------------------|
G|-------2222---7777---------|
D|--444--2222---7777--2222---|
A|--444--0000---5555--2222---|
E|--222---------------0000---|

lead part after he sings (cause I can't see)
e|------------------|
B|------------------|
G|--------9---------|
D|--6-7------7--6---|
A|------------------|
E|------------------|

(just where I'm meant to be)
e|---------------------------|
B|---------------------------|
G|-------2222----------------|
D|--444--2222--22222---------|
A|--444--0000--22222---------|
E|--222--------00000---------|

(replay the scene...)
e|----------------------------------------|
B|----------------------------------------|
G|-------2222---777777777-----------------|
D|--444--2222---777777777--5555555---2~---|
A|--444--0000---555555555--55555555--2~---|
E|--222--------------------33333333--0~---|

before the (will you walk with me)
lead
e|-------------------------------|
B|-------------------------------|
G|----------------------9--------|
D|-----6-7-9~---7-6--------------|
A|-------------------7-----7-0---|
E|-------------------------------|

Now (will you walk with me)
e|-------------|
B|-------------|
G|--------2~---|
D|---44---2~---|
A|---44---0~---|
E|---22--------|

then you back to the intro and verse part
one of the guitars has some distortion and plays some of the chords as an accent to the 
guitar. So, basically when ever the rhythm changes chords, the lead plays the same chord 
only a few times and lets it ring. if you listen to the song you would understand 
what I am saying.

build up before the solo
Rhythm
e|---------------------|
B|---------------------|
G|----7--777777777-----|
D|----7--777777777-----|
A|----5--555555555-----|
E|---------------------|
         .........

Lead
e|----------------------------------|
B|----------------------------------|
G|---7777/99999/11111111/14141414---| (x2)
D|---xxxx-xxxxx-x-x-x-x---x-x-x-x---|
A|---5555/77777/9-9-9-9-/12121212---|
E|----------------------------------|

SOLO
e|----------------------------------|
B|------10----10--------------------|
G|---9b----9b----9~---7p6-----------|
D|------------------------7b--7v----|
A|----------------------------------|
E|----------------------------------|

e|----------------------|
B|----------------------|
G|----------------------|
D|----------7-9b--77~---|
A|---7--9---------------|
E|----------------------|

the short run part
e|----------------------------------9b--7------|
B|---------------------7-10--7-10---------10~--|
G|------------7-9-7-9--------------------------|
D|---7-9-7-9-----------------------------------|
A|---------------------------------------------|
E|---------------------------------------------|

e|-------7-9-7-9------------|
B|--7-10---------10-10------|
G|---------------------9----|
D|--------------------------|
A|--------------------------|
E|--------------------------|

There are two different ways to play this I prefer this first way
but for those who don't like the stretch I'll put the alternative up too.
e|---------------------------|
B|---------10---------12-----|
G|-----7-----------7---------|
D|--9-----------9------------|
A|---------------------------|
E|---------------------------|

Again I don't prefer this way, because it's very awkward because you have to skip that string.
ALTERNATIVE TO ABOVE RIFF
e|---------------------------|
B|----------10---------12----|
G|---------------------------|
D|---9--12------9--12--------|
A|---------------------------|
E|---------------------------|

anyways, CONT. second time you play that riff above you end it with this
e|------------------------|
B|----12-12-10------------|
G|--------------13--11----|
D|------------------------|
A|------------------------|
E|------------------------|


e|-------------------------------|
B|---15p14--14p12----------------|
G|-----------------16/14--11-14~-|
D|-------------------------------|
A|-------------------------------|
E|-------------------------------|

e|---------------------------|
B|---------------------------|
G|-----9----9h11--9h11-------|
D|--11---11------------------|
A|---------------------------|
E|---------------------------|

e|-------------------------------|
B|---15p14--14p12----------------|
G|-----------------16/14--11-14~-|
D|-------------------------------|
A|-------------------------------|
E|-------------------------------|

e|------------------------------------12p10-12h14-14--20--17~--|
B|----------------------10h11--10h11---------------------------|
G|-----9----9h11--9h11-----------------------------------------|
D|--11---11----------------------------------------------------|
A|-------------------------------------------------------------|
E|-------------------------------------------------------------|

Then go back to the chorus.
Well I hope this has helped you in some way. Thank you!
Tap to rate this tab
 
# A B C D E F G H I J K L M N O P Q R S T U V W X Y Z