Song name
# A B C D E F G H I J K L M N O P Q R S T U V W X Y Z

Bedouin Soundclash - Natural Right tab

Help us improve GuitareTab! Take a short survey!
*harmonics


intro (not exact strum but to get the idea)
e|-----7*-----7-7--7--7-7--7--7-7--7---|
B|-----7*-----8-8--8--8-8--8--8-8--8---|
G|-----7*-----7-7--7--7-7--7--7-7--7---| 
D|--7*---------------------------------|
A|--7*---------------------------------|
E|--7*---------------------------------|

main riff
e|-7 7--7--7-7--7--7-7--7--7-7--7------|
B|-8-8--8--7-7--7--8-8--8--8-8--7------|
G|-9-9--9--7-7--7--9-9--9--7-7--7------| x4
D|-------------------------------------|
A|-------------------------------------|
E|-------------------------------------|

chorus
e|-7-7--7--7-7--7--7-7--7--7-7--7------|
B|-8-8--8--7-7--7--8-8--8--8-8--7------|
G|-7-7--7--7-7--7--9-9--9--7-7--7------| x4
D|-------------------------------------|
A|-------------------------------------|
E|-------------------------------------|

e|-7-7--7--7-7--7----------------------|
B|-8-8--8--7-7--7----------------------|
G|-7-7--7--7-7--7----------------------| 
D|-------------------------------------|
A|-------------------------------------|
E|-------------------------------------|

main riff 
chorus

outro
e|-7-7-7-7-7---7-----------------------|
B|-8-8-8-8-8---7-----------------------|
G|-9-9-9-9-9---7-----------------------| 
D|-------------------------------------| x4
A|-------------------------------------|
E|-------------------------------------|
Related for Natural Right tab