Song name
# A B C D E F G H I J K L M N O P Q R S T U V W X Y Z

Bedouin Soundclash - Gunships tab

---------------------------------------------------------------------------
			     Gunships - Bedouin Soundclash
                                Album - Street Gospels
---------------------------------------------------------------------------
Tabbed by:Rise_Againstme!

One of my favorite songs off the new album, it's pretty easy.

Intro/Chorus (the x is just palm muted with the same notes that are after them)

e|-----33----33----77----55----------------------------------------------|
B|---xx55--xx33--xx88--xx77----(x2 for intro, x4 for chorus)-------------|
G|---xx55--xx44--xx99--xx77----------------------------------------------|
D|-----------------------------------------------------------------------|
A|-----------------------------------------------------------------------|
E|-----------------------------------------------------------------------|
  "Gunships in a storm, sinkin to the ocean floor,
   and with 'em goes the cause that we all were fighting for,
   fire on the door as we wash upon the shore,
   colors we have worn only left our nation torn"

Verse

e|-----33------33--------77------77--------------------------------------|
B|-----55------55--------88------88--------------------------------------|
G|---xx55xxxxxx55xxxx--xx99xxxxxx99xxxx---(x3)---------------------------|
D|-----------------------------------------------------------------------|
A|-----------------------------------------------------------------------|
E|-----------------------------------------------------------------------|

e|-----33------33--------77--7777777777----------------------------------|
B|-----55------55--------88--8888888888----------------------------------|
G|---xx55xxxxxx55xxxx--xx99xx9999999999---(x1)---------------------------|
D|-----------------------------------------------------------------------|
A|-----------------------------------------------------------------------|
E|-----------------------------------------------------------------------|
    "I hear it coming through the wall,
     is that another rebels call
     lost out in a lovers squal
     and there will be no right or wrong
     and we wont sing no victory song
     for a nation that was torn,
     in a lovers civil war

     so is this graces last stand
     and will i see your face again
     and can we find no common land
     and through the windows that got blown
     comes the thought of the unknown
     and was that six years come and past
     in the shrapnel of the past

     yea yea yea....
     those old lines in the sand
     has the ship sunk fast
     and was that six years come and past
     in a bullet in a vest

     Gunships in a storm..."

The Bridge is just a bunch of delay effects on this chord and the outro is the same as 
chorus ending on this chord

e|----7------------------------------------------------------------------|
B|----8------------------------------------------------------------------|
G|----9------------------------------------------------------------------|
D|-----------------------------------------------------------------------|
A|-----------------------------------------------------------------------|
E|-----------------------------------------------------------------------|

| /  slide up
| \  slide down
| h  hammer-on
| p  pull-off
| ~  vibrato
| +  harmonic
| x  Mute note
===========================================================================
Tap to rate this tab
 
# A B C D E F G H I J K L M N O P Q R S T U V W X Y Z