Song name
# A B C D E F G H I J K L M N O P Q R S T U V W X Y Z

Bedouin Soundclash - Shadow Of A Man tab

-------------------------------------------------------------------------------
			     SHADOW OF A MAN
                         By: Bedouin Soundclash
-------------------------------------------------------------------------------
Tabbed by: Danny Gonshor
Email: dgonsh@yahoo.com

           Another great song off the Stomp Record release "Sounding A Mosaic,"
Shadow Of A Man is one of my favourite songs to play on the cd. im pretty sure
this is all correct but feel free to email me with any corrections. Every chord
is strummed twice pretty much throughout the whole song verse and chorus's. Enjoy!

Tuning: Standard EADGBe

INTRO/VERSE (starts off just bass. guitar comes in 3 time around, verse starts on
the 5th "Don't look at me with sad eyes...."

e|-----13------12-----10-----8-----------------------------------------------|
B|-----13------13-----10-----8-----------------------------------------------|
G|-----14------12-----10-----9-----------------------------------------------|
D|---------------------------------------------------------------------------|
A|---------------------------------------------------------------------------|
E|---------------------------------------------------------------------------|


PRECHORUS "I saw a man...."

e|-------------------------1-------------------------------------------------|
B|-------------------------1-------------------------------------------------|
G|-------------------------2-------------------------------------------------|
D|-------------------------3-------------------------------------------------|
A|---------------------------------------------------------------------------|
E|---------------------------------------------------------------------------|

CHORUS "Where's my soul gone to?

       F       Am     Dm      C
e|-----1--------0------1------3----------------------------------------------|
B|-----1--------2------3------5----------------------------------------------|
G|-----2--------3------2------5----------------------------------------------|
D|-----3--------3------------------------------------------------------------|
A|---------------------------------------------------------------------------|
E|---------------------------------------------------------------------------|
Tap to rate this tab
 
# A B C D E F G H I J K L M N O P Q R S T U V W X Y Z