Song name
# A B C D E F G H I J K L M N O P Q R S T U V W X Y Z

Bedouin Soundclash - Rebel Rouser tab

-----------------------------------------------------------------------------
		     Rebel Rouser- Bedouin Soundclash
-----------------------------------------------------------------------------

Tabbed by:Anthony Leonardo
Email:idrathersurf119@aim.com

Tuning:Standard
EADGBE

I dont know if this is correct but it sounds good to me and ill tab out the rest of it later on.

e|--7h8p7--7-7--5-5--3-3---------------|
B|--7h8p7--7-7--5-5--3-3---------------|
G|---------8-8--6-6--4-4---------------|
D|---------9-9--7-7--5-5---------------|
A|---------9-9--7-7--5-5---------------|
E|---------7-7--5-5--3-3---------------|

Tap to rate this tab
# A B C D E F G H I J K L M N O P Q R S T U V W X Y Z