Song name
# A B C D E F G H I J K L M N O P Q R S T U V W X Y Z

Bedouin Soundclash - 1259 Lullaby tab

Song: 12:59 Lullaby
Artist: Bedouin Soundclash
Album: Street Gospels
Tabbed by SPENCER LARSEN

For the most part, the strum pattern is ddud.

INTRO:
e----9----9----9----9-----|l
B----9----9----9----9-----|l
G---10---10---10---10-----|l
D-------------------------|l
A-------------------------|l
E-------------------------|l
(Repeat x8)

VERSE:
e----9---9---9---9---9---9---9---9---9---8---8---8---8---8---8---8--|
B----9---9---9---9---9---9---9---9---9---9---9---9---9---9---9---9--|
G---10--10--10--10--10--10--10--10--10--10--10--10--10--10--10--10--|
D-------------------------------------------------------------------|
A-------------------------------------------------------------------|
E-------------------------------------------------------------------|

---6--6--6--6--6--6--6--6---9---9---9---9--11--11--11--11----|l
---7--7--7--7--7--7--7--7--11--11--11--11--11--11--11--11----|l
---6--6--6--6--6--6--6--6--10--10--10--10--11--11--11--11----|l
-------------------------------------------------------------|l
-------------------------------------------------------------|l
-------------------------------------------------------------|l
(Repeat x2)

PRECHORUS:
e---11--11--11--11--11--11--11--11--8--8--8--8--8--8--8--8---|l
B---11--11--11--11--11--11--11--11--9--9--9--9--9--9--9--9---|l
G---11--11--11--11--11--11--11--11--8--8--8--8--8--8--8--8---|l
D------------------------------------------------------------|l
A------------------------------------------------------------|l
E------------------------------------------------------------|l
(Repeat x4)

CHORUS:
e----9---9---9---9---9---9---9---9---9---8---8---8---8---8---8---8--|
B----9---9---9---9---9---9---9---9---9---9---9---9---9---9---9---9--|
G---10--10--10--10--10--10--10--10--10--10--10--10--10--10--10--10--|
D-------------------------------------------------------------------|
A-------------------------------------------------------------------|
E-------------------------------------------------------------------|

--9---9---9---9---9---9---9---9--11--11--11--11--11--11--11--11------|l
-11--11--11--11--11--11--11--11--11--11--11--11--11--11--11--11------|l
-10--10--10--10--10--10--10--10--11--11--11--11--11--11--11--11------|l
---------------------------------------------------------------------|l
---------------------------------------------------------------------|l
---------------------------------------------------------------------|l
(Repeat x2)

INSTRUMENTAL
e--9---9---9---9---9---9---9---9---9---8---8---8---8--6--6--6--6----|l
B--9---9---9---9---9---9---9---9---9---9---9---9---9--7--7--7--7----|l
G-10--10--10--10--10--10--10--10--10--10--10--10--10--6--6--6--6----|l
D-------------------------------------------------------------------|l
A-------------------------------------------------------------------|l
E-------------------------------------------------------------------|l
(Repeat x4)

VERSE:
e----9---9---9---9---9---9---9---9---9---8---8---8---8---8---8---8--|
B----9---9---9---9---9---9---9---9---9---9---9---9---9---9---9---9--|
G---10--10--10--10--10--10--10--10--10--10--10--10--10--10--10--10--|
D-------------------------------------------------------------------|
A-------------------------------------------------------------------|
E-------------------------------------------------------------------|

---6--6--6--6--6--6--6--6---9---9---9---9--11--11--11--11----|l
---7--7--7--7--7--7--7--7--11--11--11--11--11--11--11--11----|l
---6--6--6--6--6--6--6--6--10--10--10--10--11--11--11--11----|l
-------------------------------------------------------------|l
-------------------------------------------------------------|l
-------------------------------------------------------------|l
(Repeat x2)

PRECHORUS:
e---11--11--11--11--11--11--11--11--8--8--8--8--8--8--8--8---|l
B---11--11--11--11--11--11--11--11--9--9--9--9--9--9--9--9---|l
G---11--11--11--11--11--11--11--11--8--8--8--8--8--8--8--8---|l
D------------------------------------------------------------|l
A------------------------------------------------------------|l
E------------------------------------------------------------|l
(Repeat x4)

CHORUS:
e---9---9---9---9---9---9---9---9---9---8---8---8---8---8---8---8---|
B---9---9---9---9---9---9---9---9---9---9---9---9---9---9---9---9---|
G--10--10--10--10--10--10--10--10--10--10--10--10--10--10--10--10---|
D-------------------------------------------------------------------|
A-------------------------------------------------------------------|
E-------------------------------------------------------------------|

---9---9---9---9---9---9---9---9--11--11--11--11--11--11--11--11----|l
--11--11--11--11--11--11--11--11--11--11--11--11--11--11--11--11----|l
--10--10--10--10--10--10--10--10--11--11--11--11--11--11--11--11----|l
--------------------------------------------------------------------|l
--------------------------------------------------------------------|l
--------------------------------------------------------------------|l
(Repeat x2)

INSTRUMENTAL
e---9---9---9---9---9---9---9---9---9---8---8---8---8--6--6--6--6---|l
B---9---9---9---9---9---9---9---9---9---9---9---9---9--7--7--7--7---|l
G--10--10--10--10--10--10--10--10--10--10--10--10--10--6--6--6--6---|l
D-------------------------------------------------------------------|l
A-------------------------------------------------------------------|l
E-------------------------------------------------------------------|l
(Repeat x4)

CHORUS:
e----9---9---9---9---9---9---9---9---9---8---8---8---8---8---8---8--|
B----9---9---9---9---9---9---9---9---9---9---9---9---9---9---9---9--|
G---10--10--10--10--10--10--10--10--10--10--10--10--10--10--10--10--|
D-------------------------------------------------------------------|
A-------------------------------------------------------------------|
E-------------------------------------------------------------------|

---9---9---9---9---9---9---9---9--11--11--11--11--11--11--11--11----|l
--11--11--11--11--11--11--11--11--11--11--11--11--11--11--11--11----|l
--10--10--10--10--10--10--10--10--11--11--11--11--11--11--11--11----|l
--------------------------------------------------------------------|l
--------------------------------------------------------------------|l
--------------------------------------------------------------------|l
(Repeat x4)

OUTRO: (Strummed dduuduuduudu)
e--9---9---9---9---9---9---9---9---9---9---9---9---|l
B--9---9---9---9---9---9---9---9---9---9---9---9---|l
G-10--10--10--10--10--10--10--10--10--10--10--10---|l
D--------------------------------------------------|l
A--------------------------------------------------|l
E--------------------------------------------------|l
(Repeat x4)
Tap to rate this tab
 
# A B C D E F G H I J K L M N O P Q R S T U V W X Y Z