Bedouin Soundclash - Jeb Rand tab

Chords Verse: Am /// F /// Em 

Refrain: G /// Am /// F /// C


Always played as barre chords

Notice: Verse   - F played barre at eight Fret
        Refrain - F played barre at first Fret

Intro

                         2x                        
e|---------|-------------------------------|
B|---x-x---|-------------------------------|
G|---x-x---|---------5--------5------------|
D|---x-x-x-|------7--5----7-7-5------------| all pm
A|---x-x-x-|------7-------7-7--------------|
E|-5-x-x-x-|-5-5---------------------------|

e|-----------------------------------------|
B|-----------------------------------------|
G|------------------5--------5--5-5-4-4----|
D|---------------7--5----7-7-5--5-5-5-5----| all pm
A|---------------7-------7-7---------------|
E|----------5-5----------------------------|


Am                         F              Em
    Jeb Rand, running from bullets of his past
Am                         F              Em
    Jumping, from rock to rock, just out of grasp
Am                         F              Em
    Orphan boy, coming from ships across the sea
Am                         F              Em
    Memory is what you know not what you see


So please understand - 


G                  Am
Jeb Rand, you're a wanted man
F                  C
Shot down by your brother's hand
G                  Am
Jeb Rand, run out of this land
F                  C
They won't stop till you can, understand


Jeb Rand, fighting time, with all his might
A desert wind, blows ten thousand cans,
blazing in the night

So please understand -

Jeb Rand, you're a wanted man
Shot down by your brother's hand
Jeb Rand, run out of this land
They won't stop till you can, understand?stand, understand?stand

So please understand - 

Jeb Rand, you're a wanted man
Shot down by your brother's hand
Jeb Rand, run out of this land
They won't stop till you can, understand


...enjoy!
Tap to rate this tab
 
# A B C D E F G H I J K L M N O P Q R S T U V W X Y Z