Guitaretab - guitar tabs
Song name
# A B C D E F G H I J K L M N O P Q R S T U V W X Y Z

Bedouin Soundclash - Living In Jungles tab

Riff 1:

e|--------------------|
B|--------------------|
G|--------------------|
D|------6-5------6-5--|
A|--3-3--------3------|
E|--------------------|


e|---------------------|
B|---------------------|
G|---------------------|
D|---------------6-5---|
A|------6-5----3-------|
E|--3-3----------------|



Riff 2:

e|-3-3-3-3-3-3-3-3-3-3-|
B|-4-4-4-4-4-4-4-4-4-4-|
G|-5-5-5-5-5-5-5-5-5-5-|
D|---------------------|
A|---------------------|
E|---------------------|

[ Tab from: http://www.guitaretab.com/b/bedouin-soundclash/62217.html ]
e|-3-3-4-4-4-4---------|
B|-4-4-3-3-3-3---------|
G|-5-5-3-3-3-3---------|
D|---------------------|
A|---------------------|
E|---------------------|


e|-3-3-3-3-3-3-3-3-3-3-|
B|-4-4-4-4-4-4-4-4-4-4-|
G|-5-5-5-5-5-5-5-5-5-5-|
D|---------------------|
A|---------------------|
E|---------------------|


e|-3-34----------------|
B|-4-43----------------|
G|-5-53----------------|
D|---------------------|
A|---------------------|
E|---------------------|

if u have any corrections feel free 2 put um up
Related for Living In Jungles tab
Advertisement will be closed in 10 seconds