Song name
# A B C D E F G H I J K L M N O P Q R S T U V W X Y Z

Bedouin Soundclash - Jeb Rand tab

Intro:
          Am           Am           Am       C   G
    ----------------------------------------0-0-3-3--|
    -------1--111-------1--111-------1--111-1-1-0-0--|
    -------2--222-------2--222-------2--222-0-0-0-0--|
    -------2--222-------2--222-------2--222-2-2-0-0--|
    -0-0-3--------0-0-3--------0-0-3--------3-3-2-2--|
    ----------------------------------------x-x-3-3--|
PM   * * *    *** * * *    *** * * *    *** *   *

Verse:
            Am           F       G
    --5x5x5x5x5x5x5x5-1x1x1x1-3x3x3x3--|
    --5x5x5x5x5x5x5x5-1x1x1x1-3x3x3x3--|
    --5x5x5x5x5x5x5x5------------------|
    -----------------------------------|  4x (On the Fourth time play the
    -----------------------------------|      G as a Full open chord for
    -----------------------------------|      the last 2 strokes)

Chorus #1:
         G       Am      F       C
    --3x3x3x3-5x5x5x5-1x1x1x1-0x0x0x0--|
    --3x3x3x3-5x5x5x5-1x1x1x1-1x1x1x1--|
    ----------5x5x5x5---------0x0x0x0--|
    --------------------------2x2x2x2--|  2x
    -----------------------------------|
    -----------------------------------|

Intro 1x

Verse 2x

Chorus #2:
     G       Am      F       C
    --3x3x3x3-5x5x5x5-1x1x1x1-0x0x0x0--|
    --3x3x3x3-5x5x5x5-1x1x1x1-1x1x1x1--|
    ----------5x5x5x5---------0x0x0x0--|
    --------------------------2x2x2x2--|
    -----------------------------------|
    -----------------------------------|
         G       Am  |       F           C       G
    --3x3x3x3-5x5x5x5|-1x1x1x1x1x1x1x1-0x0x0x0-3x3x3x3-----------------|
    --3x3x3x3-5x5x5x5|-1x1x1x1x1x1x1x1-1x1x1x1-3x3x3x3-----------------|
    ----------5x5x5x5|-----------------0x0x0x0-------------------------|
    -----------------|-----------------2x2x2x2--------------3x---------|
    -----------------|-------------------------------------------------|
    -----------------|-------------------------------------------------|
                       "They won't stop 'till you can't understand..."

Chorus #1

Intro

End On:  Am (open)

So thats pretty much it. The second guitar pretty much plays the intro throughout the
except in the chorus there is some picking progression that i havent't figured out. But if
just one guitar playing this is pretty much the best way to play it. Bedouin Soundclash 
awesome. Enjoy!
Tap to rate this tab
# A B C D E F G H I J K L M N O P Q R S T U V W X Y Z