Song name
# A B C D E F G H I J K L M N O P Q R S T U V W X Y Z

Bedouin Soundclash - Murder On The Midnight Wire tab

-----------------------------------------------------------------------
Murder on the Midnight Wire- Bedouin Soundclash
-----------------------------------------------------------------------
Tabbed by:CurtisJay
Email:just leave comments in the comments area

Tuning:Standard

Part 1
e|--5---5-5----|
B|--5---5-5----|This repeats throughout 
G|--5---5-5----|most of the song.
D|-------------|
A|-------------|
E|-------------|

Part 2
e|--10---12----|
B|--10---12----|You hit each of these chords
G|--10---12----|once followed by two times
D|-------------|softly.
A|-------------|
E|-------------|

Chorus
e|--0--3--1--0--(10)-(12)-|
B|--1--3--1--1--(10)-(12)-|
G|--0--4--1--0--(10)-(12)-|
D|------------------------|
A|------------------------|
E|------------------------|

Tap to rate this tab
# A B C D E F G H I J K L M N O P Q R S T U V W X Y Z