Guitaretab - guitar tabs
Song name
# A B C D E F G H I J K L M N O P Q R S T U V W X Y Z

Bedouin Soundclash - Music My Rock tab

-----------------------------------------------------------------------
                  Music My Rock  Bedouin Soundclash
-----------------------------------------------------------------------
Tabbed by:CurtisJay
Email:

Tuning: Standard

Intro/Pre-Verse/Outro  Played many times throughout song.
e|---3-3-3------2-2-2--|
B|---3-3-3------2-2-2--|
G|---4-4-4------3-3-3--|  x4
D|---------------------|
A|---------------------|
E|---------------------|
[ Tab from: http://www.guitaretab.com/b/bedouin-soundclash/77146.html ]
Verse 1
e|---2------3-3-3---2-2-2------|
B|---3--x8--3-3-3---2-2-2------|
G|---4------4-4-4---3-3-3------|  x2
D|-----------------------------|
A|-----------------------------|
E|-----------------------------|

Chorus 1
e|--2------3------2--------2------3------2-------|
B|--3--x8--3--x4--3--x4----3--x8--3--x4--3--x4---|
G|--2------4------2--------4------4------4-------|
D|-----------------------------------------------|
A|-----------------------------------------------|
E|-----------------------------------------------|

Pre-Verse (Intro)

Verse 2 (Same as Verse 1)

Chorus 2 (Same as Chorus 1)

Pre-Verse

Bridge
e|---2--2----3-3-3--2-2-2---|
B|---3--3----3-3-3--2-2-2---|
G|---4--4----4-4-4--3-3-3---| x2
D|--------------------------|
A|--------------------------|
E|--------------------------|

Chorus x2

Outro (Intro)




Related for Music My Rock tab