Song name
# A B C D E F G H I J K L M N O P Q R S T U V W X Y Z

Bedouin Soundclash - Walls Fall Down tab

Help us improve GuitareTab! Take a short survey!
Intro
e|----7----6----7----7--|--7----6----7----------|
B|----7----7----7----7--|--7----7----7----------|
G|----8----6----9----8--|--9----6----8----------|
D|----------------------|-----------------------|
A|----------------------|-----------------------|
E|----------------------|-----------------------|

1st verse
*All on the upbeat
e|----7--7--7--7--|--6--6--7--7--|--7--7--7--7--|--6--6--6--6--|
B|----7--7--7--7--|--7--7--7--7--|--7--7--7--7--|--7--7--7--7--|
G|----8--8--8--8--|--6--6--9--9--|--8--8--9--9--|--6--6--6--6--|
D|----------------|--------------|--------------|--------------|
A|----------------|--------------|--------------|--------------|
E|----------------|--------------|--------------|--------------| x2

Chorus (/ = strum)
e|--7///////7///////--|--6///////////////--|
B|--7///////7///////--|--7///////////////--|
G|--9///////8///////--|--6///////////////--|
D|--------------------|--------------------|
A|--------------------|--------------------|
E|--------------------|--------------------| x2

e|--7///////6///////--|--7///////7///////--|
B|--7///////7///////--|--7///////7///////--|
G|--8///////6///////--|--9///////8///////--|
D|--------------------|--------------------|
A|--------------------|--------------------|
E|--------------------|--------------------|

e|--7///////6///////--|--7///////////////--|
B|--7///////7///////--|--7///////////////--|
G|--9///////6///////--|--8///////////////--|
D|--------------------|--------------------|
A|--------------------|--------------------|
E|--------------------|--------------------|

2nd verse
e|----7--7--7--7--|--6--6--7--7--|--7--7--7--7--|--6--6--6--6--|
B|----7--7--7--7--|--7--7--7--7--|--7--7--7--7--|--7--7--7--7--|
G|----8--8--8--8--|--6--6--9--9--|--8--8--9--9--|--6--6--6--6--|
D|----------------|--------------|--------------|--------------|
A|----------------|--------------|--------------|--------------|
E|----------------|--------------|--------------|--------------| x2

2nd guitar (2nd time)
e|-----7--------7--------7--|-----6-----------7--------|
B|--------7--------7--------|--------7-----------7-----|
G|--8--------8--------8-----|--6--------6--9--------9--|
D|--------------------------|--------------------------|
A|--------------------------|--------------------------|
E|--------------------------|--------------------------|

e|-----7-----------7--------|-----6--------6--------6--|
B|--------7-----------7-----|--------7--------7--------|
G|--8--------8--9--------9--|--6--------6--------6-----|
D|--------------------------|--------------------------|
A|--------------------------|--------------------------|
E|--------------------------|--------------------------|

Chorus (/ = strum)
e|--7///////7///////--|--6///////////////--|
B|--7///////7///////--|--7///////////////--|
G|--9///////8///////--|--6///////////////--|
D|--------------------|--------------------|
A|--------------------|--------------------|
E|--------------------|--------------------| x2

e|--7///////6///////--|--7///////7///////--|
B|--7///////7///////--|--7///////7///////--|
G|--8///////6///////--|--9///////8///////--|
D|--------------------|--------------------|
A|--------------------|--------------------|
E|--------------------|--------------------|

e|--7///////6///////--|--7///////////////--|
B|--7///////7///////--|--7///////////////--|
G|--9///////6///////--|--8///////////////--|
D|--------------------|--------------------|
A|--------------------|--------------------|
E|--------------------|--------------------|

3rd verse
e|----7--7--7--7--|--6--6--7--7--|--7--7--7--7--|--6--6--6--6--|
B|----7--7--7--7--|--7--7--7--7--|--7--7--7--7--|--7--7--7--7--|
G|----8--8--8--8--|--6--6--9--9--|--8--8--9--9--|--6--6--6--6--|
D|----------------|--------------|--------------|--------------|
A|----------------|--------------|--------------|--------------|
E|----------------|--------------|--------------|--------------| x2

2nd guitar (2nd time)
e|-----7--------7--------7--|-----6-----------7--------|
B|--------7--------7--------|--------7-----------7-----|
G|--8--------8--------8-----|--6--------6--9--------9--|
D|--------------------------|--------------------------|
A|--------------------------|--------------------------|
E|--------------------------|--------------------------|

e|-----7-----------7--------|-----6--------6--------6--|
B|--------7-----------7-----|--------7--------7--------|
G|--8--------8--9--------9--|--6--------6--------6-----|
D|--------------------------|--------------------------|
A|--------------------------|--------------------------|
E|--------------------------|--------------------------|

Last Chorus
e|--7///////7///////--|--6///////////////--|
B|--7///////7///////--|--7///////////////--|
G|--9///////8///////--|--6///////////////--|
D|--------------------|--------------------|
A|--------------------|--------------------|
E|--------------------|--------------------| x6

Outro
e|--7///////////////|////////////////--|
B|--7///////////////|////////////////--|
G|--8///////////////|////////////////--|
D|------------------|------------------|
A|------------------|------------------|
E|------------------|------------------| x2
Related for Walls Fall Down tab