Song name
# A B C D E F G H I J K L M N O P Q R S T U V W X Y Z

Bedroom Eyes - Norwegian Pop chords

Highlighted       Show chord diagrams
Bedroom Eyes ~ Norwegian Pop

http://www.bedroomeyes.se

From the Valentine Vacancy EP.

Love this guy, he's currently recording an album. 
Got tired of waiting for someone else to tab them, so did it myself.

Chords Used:

G      [320033]
Cadd9  [x32033]
Am7    [x02x33] 
Dsus4  [xx0233] 
Em7    [022033]

Intro: 

G - Cadd9 x4  
Am7 - Cadd9 - Dsus4 x2

Piano Riff repeated throughout the song:
e|---------------------------------------------------|
B|----15--13--12--12--13--15--15--13-----------------|  X2
G|------------------------------------12-------------|    
D|---------------------------------------------------|

e|---------------------------------------------------|
B|-------------------12------------------------------|
G|---12--14--14--14------14--12------12--12----------|
D|-------------------------------14------------------|

e|---------------------------------------------------|
B|-------------------12--15--12----------------------|
G|---12--14--14--14--------------14--12--12----------|
D|---------------------------------------------------|


Verse 1:

G                            Cadd9
Songs we hold close learned us more about this life
          G                            Cadd9
Than those years sitting cornered in a classroom
    Am7            Cadd9           Dsus4     G  
For every darkened time there is a tune
  Am7            Cadd9           Dsus4      
A soothing painkill safe to sink into


Chorus:

    Em7                       G
You  might not always stand by me                                      
               Am7                       G
But how sad our life would be with guarantees


[Play verse chords again]

Verse 2:

Three minute songs sometime last a lifetime long
Safe & sound with Norwegian Pop to stick to
Let's go where people are like you and me
The dance floor is a mess but so are we

Chorus:

She says there's so much left to lose
But tell me how could music ever fails us too?

Interlude (strum each chord once each):

G                     Cadd9
Julie, this too shall pass
G                     Cadd9
Julie, this too shall pass
G                     Cadd9
Julie, this too shall pass
Am7                 Cadd9              Dsus4
It's just another low these never last

Outro: Play verse chords through, end on G.

Tap to rate this tab
# A B C D E F G H I J K L M N O P Q R S T U V W X Y Z