Song name
# A B C D E F G H I J K L M N O P Q R S T U V W X Y Z

Bedroom Eyes - Stethoscope Sounds chords

Highlighted       Show chord diagrams
Bedroom Eyes ~ Stethoscope Sounds

Tabbed by ~Coxy~
From the Valentine Vacancy EP

Chords

E7    [079900]
C#m7  [x46600]
Bsus4 [x24400]
Asus2 [x02200]
G#m7  [4x2400]
F#m7  [244200] OR [x44200]

Verse:
E7                              C#m7          
Stars might be nothing but used light
                    Bsus4                         E7
Shedding a past time upon your face
And dreams seem like merely a smokescreen
A vain compensation your mind displays

Chorus:
Asus2               Bsus4
This life writes no I.O.U.'s
          E7           C#m7  Bsus4     E7
Let's put every moment left to use


Interlude:  E7  
C#m7 Bsus4   Asus2
C#m7 Bsus4   Asus2
G#m7 F#m7    E7 [STOP]

Trumpet(?) Riff:

e|------------------------------------------------------|
B|------------------------------------------9-----------|
G|----9--9--11--9--8--9--8----------------9---9--11-----|
D|---------------------------11--9--7--9----------------|

e|------------------------------------------------------|
B|-9----------------------------------------------------|
G|----11--9--8---------9--11--9-------------------------|
D|--------------11--9-----------------------------------|


Verse:
You are dogmatic but don't change
Every backstreet here knows your name
It's easy to feel like they owe you
Something divine or just to cling to

Chorus:
This life writes no I.O.U.'s
Let's put every moment left to use

Interlude again but don't end on E7 this time

Bridge (interlude chords):
C#m7              Bsus4
Head against your chest
      Asus2               C#m7
Every beat resounds you're dispossessed
        Bsus4
And it's implied
      Asus2           G#m7    F#m7          E7
What a wistfulness you hold inside 

Outro: E7 Bsus4 E7 Bsus4 
       Asus2    E7 Bsus4 
       E7 Bsus4 E7 Bsus4 
       Asus2   G#m7   F#m7
       End on E7
Tap to rate this tab
# A B C D E F G H I J K L M N O P Q R S T U V W X Y Z