Song name
# A B C D E F G H I J K L M N O P Q R S T U V W X Y Z

Bee Gees - I Was A Lover tab

Highlighted       Show chord diagrams
BEE GEES – I WAS A LOVER, A LEADER OF MEN
(Tabbed by Ace 1.15.19)

Intro
EDEDEDE 
DEDEDE – 
– ED     G
				Aha     Aha     Aha     Ah, ha

Verse 1
G                F         G
I was a lover, a leader of men
G                  F            G
All of the women I knew were my friends
G                  F           G
I was so happy, my feet on the ground
G                   F          G
I didn’t know I was on the way down
A                         D
‘Cause you don’t feel the same
            C                  FCBb - E
It’s only a game , it’s only a game , it’s only a game


EDED (etc.)
Aha, aha, aha, ah, ha...

Verse 2
G                  F          G
I had a billion or two in the bank
G                   F            G
I gave to charity , ain’t got no thanks
G                      F           G
You gave me all that a woman could give
G                         F             G
Less you’re affection , I don’t want to live
A                         D
‘Cause you don’t feel the same
            C                  FCBb - E
It’s only a game , it’s only a game , it’s only a game

Guitar solo
e ------------------------------------------------------------------|
B ------------------------------------------------------------------|
G --4--4--6--7--6--4--2-----4h6--4-----4--4--6--7--6--4--2--1-------|
D -------------------------------------------------------------4--2-|
A ------------------------------------------------------------------|
E ------------------------------------------------------------------|

e ------------------------------------------------------------------|
B ------------------------------------------------------------------|
G --4-----6--7--6--4--2--4--6--4--4--5--------7---------------------|
D -----------------------------------3--------5---------------------|
A ------------------------------------------------------------------|
E ------------------------------------------------------------------|
(4h6 = hammer on, you must pick only the first note)

A                         D
‘Cause you don’t feel the same

Verse 3 (actually verse 1 again)
G                F         G
I was a lover, a leader of men
G                  F            G
All of the women I knew were my friends
G                  F           G
I was so happy, my feet on the ground
G                   F          G
I didn’t know I was on the way down
A                         D
‘Cause you don’t feel the same
            C                  FCBb - E
It’s only a game , it’s only a game , it’s only a game


EDED (etc.)
Aha, aha, aha, ah, ha...
Tap to rate this tab
# A B C D E F G H I J K L M N O P Q R S T U V W X Y Z