Song name
# A B C D E F G H I J K L M N O P Q R S T U V W X Y Z

Bee Gees - Tragedy tab

I ain't much of a finger-picker, so please help me if I got it wrong,
and I think it should be an octave higher than what I normally do.
-------------------------------------------------------------------------------
			     TRAGEDY - Bee Gees
-------------------------------------------------------------------------------
Tabbed by:Rocky Mak (GuitarLearner)
Email:nbagigafreak@hotmail.com

Tuning:Standard
Sped 1- = 1 beat
INTRO:
e|--------------------------------------------------------------|
B|--------------------------------------------------------------|
G|----------------------------------------0-2-------------------|
D|----0-----0-2-0---------------0-----2-4-------00--00--00--00--|
A|2-4---2-4-------4-2---4---------------------------------------|
E|--------------------------------------------------------------|
Middle
e|--------------------------------------------------------------|
B|------------------------------------------0-2-3---------------|
G|-----------------------------------2-0--3---------------------|
D|----0-----0-2-0-------------0-----0----4----------------------|
A|2-4---2-4-------4-2-1-4-2-4---2-4-----------------------------|
E|--------------------------------------------------------------|
Tap to rate this tab
# A B C D E F G H I J K L M N O P Q R S T U V W X Y Z