Song name
# A B C D E F G H I J K L M N O P Q R S T U V W X Y Z

Bee Gees - Youll Never See My Face Again chords

Highlighted       Show chord diagrams
BEE GEES
"You'll Never See My Face Again" from the album "ODESSA"
Songwriters: GIBB, BARRY ALAN/GIBB, MAURICE ERNEST/GIBB, ROBIN HUGH

The strings arrangement is actually kind of a big deal on the record, so playing a 
couple of strings fills on a guitar works really nicely.

--------
*FILL 1*
--------
         ^                            
     E  Q    Q.     E  E     E    
E||--3--2-----------2-----|--2--||
B||--3-------3------3--3--|--3--||
G||--2-------2------2--2--|--2--||
D||--0-------0---------0--|--0--||
A||-----------------------|-----||
E||-----------------------|-----||


--------
*FILL 2*
--------
          ^                                                         
                                        |--3--|  |--3--|  |--3--|   
     Q    E  Q    E  Q       Q    E  E  S  S  S  S  S  S  S  S  S   
E||-------3--2------------|---------------------------------------||
B||-------3-------3-------|--1-------1--0h-1p-0h-1p-0h-1p-0h-1p-0-||
G||-------2----------2----|--2----2-------------------------------||
D||-------0---------------|--0------------------------------------||
A||-----------------------|---------------------------------------||
E||-----------------------|---------------------------------------||

Duration Legend                         Tablature Legend
---------------                         ----------------
W - whole                               h - hammer on
H - half                                p - pull off
Q - quarter                             ^ - brush up
E - 8th
S - 16th
T - 32nd
X - 64th
. - note dotted
|-n-|  - n-tuplets

------------
Verse:
------------
D                                  *FILL 1*
Ev'ry single word has been spoken
D                                 G    D
It's much too late to change your ways
D                                  *FILL 1*
Far too many vows have been broken
D                          G    D
You can't expect a soul to stay

------------
Chorus:
------------
G                                C
You think that you can stand and lie
D                             G      (G\F#)
It makes me laugh, you got no friends
Em                          C    G\B   F
It took a thousand years to find out why
A                        D    *FILL 2*
You'll never see my face again

--------------------------------------
same chords for the rest of the song
--------------------------------------


You know that you've been left before this night
It's come my turn to make it over
I wish that ev'ry thing was colored white
I wish that I could be a rover

You think that you can stand and lie
It makes me laugh, you got no friends
It took a thousand years to find out why
You'll never see my face again

Ev'ry single word has been spoken
It's much too late to change your ways
Far too many vows have been broken
You can't expect a soul to stay

You think that you can stand and lie
It makes me laugh, you got no friends
It took a thousand years to find out why
You'll never see my face again

You'll never see my face again
You'll never see my face again
You'll never see my face again
You'll never see my face again
Tap to rate this tab
# A B C D E F G H I J K L M N O P Q R S T U V W X Y Z