Song name
# A B C D E F G H I J K L M N O P Q R S T U V W X Y Z

Beecher - Function Function tab

-------------------------------------------------------------------------------
			     FUNCTION, FUNCTION - Beecher
-------------------------------------------------------------------------------
Tabbed by: Salmonface
Email: salmonfacevonchinomarino@gmail.com

Tuning:C#-F#-B-E-Ab-C# (standard tuning in C#)
Tempo: Really fucking fast!

C#|--------------------------------|
Ab|--------------------------------|
E |--------------------------------|
B |--------------------------------|
F#|----------------------------4---|
C#|--4p0-1p0-6p3p0-4p0-1p0-6-3-----|

C#|-------------------------x---------------------|
Ab|-------------------------x---------------------|
E |-------------------------x---------------------|
B |----222222---222-----222-x---2222222222-6666---|
F#|--3p222222-3p222-5/6-222-x-3p2222222222-4444---|
C#|--1p000000-1p000-3/4-000-x-1p0000000000--------|
        M----    M-     M--      M-------- 

C#|--------------------------------------|
Ab|--------------------------------------|
E |--5--6-------------5--6---------------|
B |--4--5--6--2222222-4--5--6--5555555---|
F#|--------4--2222222-------4--5555555---|
C#|----0--0---0000000---0--0---3333333---|
       M  M    M-----   M  M    M-----

C#|---------------------------------------------------|
Ab|---------------------------------------------------|
E |---------------------------------------------------|
B |--66666666/-10-------------------------------------|
F#|--44444444/-8-----6----7--------------4/3-22-2-----|
C#|----------------0-4--0-5--4p3-0-3-2-0-2/1-00-0-----|
                   M    M        M------     M---

C#|---------------------------------|
Ab|---------------------------------|
E |---------------------------------|	GUITAR 1
B |-----------8------------8--11----|
F#|--11-7-8-7--10-7-11-7-8--10------|
C#|---------------------------------|

C#|-------------------------------------|
Ab|-------------------------------------|
E |-------------------------------------|
B |--9-9-9----12-12-12----15-15-15------|
F#|--7-7-7----10-10-10----13-13-13------|
C#|--7-7-7----10-10-10----13-13-13------|

C#|--------------------------------|
Ab|--------------------------------|
E |--------------------------------|
B |--22-2----6666-2-22----6666-----|
F#|--22-2----4444-2-22----4444-----|
C#|--00-0---------0-00-------------|
     M---         M---

C#|------------|----------------|
Ab|-------6>>>-|-5>>>-12>>>-----|
E |--7>>>------|----------------|	GUITAR 1
B |------------|----------------|
F#|------------|----------------|
C#|------------|----------------|

C#|--15>>>------|--19>>>---------|
Ab|-------14>>>-|--------15>>>---|
E |-------------|----------------|   GUITAR 2
B |-------------|----------------|
F#|-------------|----------------|
C#|-------------|----------------|

KEY:
| /  slide up
| \  slide down
| h  hammer-on
| p  pull-off
| ~  vibrato
| +  harmonic
| x  Mute note
| >  Lots of really fast picking
| M- Palm mute
===============================================================================
http://www.beecher-online.com/
Tap to rate this tab
 
# A B C D E F G H I J K L M N O P Q R S T U V W X Y Z