Song name
# A B C D E F G H I J K L M N O P Q R S T U V W X Y Z

Beer Softened Stool - Cow Farm tab

#----------------------------------PLEASE NOTE--------------------------------#
#This file is the author's own work and represents their interpretation of the#
#song. You may only use this file for private study, scholarship, or research.#
#-----------------------------------------------------------------------------#

Date: Sat, 14 Mar 1998 23:29:47 -0500
From: "Brian j. dawson" 
Subject: TAB: Cow Farm by Beer Softened Stool

tabbed by dawsonbr@zebu.cvm.msu.edu 
"COW FARM" by Beer Softened Stool
>From "The Brown Album"


Riff 1
-|---------------------------------------------|
-|---------------------------------------------|
-|---------------------------------------------|
-|---------------------------------------------|
-|--2--2--2--2--2--2--5-5--2-------------------|
-|--0--0--0--0--0--0--3-3--0-------------------|

Riff 2
-|--------------------------------------------------------|
-|--------------------------------------------------------|
-|--------------------------------------------------------|
-|--------------------------------------------------------|
-|--2--2--2--2--5p-0--5p--0--2--2--2--2--3p--0--3p--0-----|
-|--0--0--0--0--3p-0--3p--0--0--0--0--0--1p--0--1p--0-----|

Riff 3
-|------------------------------------------------------|
-|------------------------------------------------------|
-|--2--2--2-------2--2--2--2----------------------------|
-|--2--2--2-------2--2--2--2----------------------------|
-|--0--0--0--3p0--0--0--0--0----------------------------|
-|------------------------------------------------------|

play riff 1 8x
then play riff2 8x and end on an [A]

[A][B][C][C#][D]
[D]Spend My summer working on the farm
[D]I'm the guy with the stinky arm
[D]Stick it up cow butt all day
[D]Moo Moo Moo is all they got to say

Riff 3
MOO! MOO! MOO!
[A][B][C][C#][D]
[D]Wearin' coveralls and rubber boots
[D]Spend my time reachin' up poop chutes
[D]Squeeze them udders gonna get some milk
[D]Biggest titties that I ever felt

Riff 3
MOO! MOO! MOO!
[E]
riff 1 8x
riff 2 4x end on [E]
Tap to rate this tab
# A B C D E F G H I J K L M N O P Q R S T U V W X Y Z